  0
SECTION
  2
HEADER
  9
$ACADVER
  1
AC1014
  9
$ACADMAINTVER
 70
     0
  9
$DWGCODEPAGE
  3
ANSI_1252
  9
$INSBASE
 10
0.0
 20
0.0
 30
0.0
  9
$EXTMIN
 10
10.222137
 20
11.267912
 30
0.0
  9
$EXTMAX
 10
2410.222168
 20
2411.267822
 30
0.0
  9
$LIMMIN
 10
1155.222153
 20
1155.222153
  9
$LIMMAX
 10
3555.222183
 20
3568.767777
  9
$ORTHOMODE
 70
     0
  9
$REGENMODE
 70
     1
  9
$FILLMODE
 70
     1
  9
$QTEXTMODE
 70
     0
  9
$MIRRTEXT
 70
     1
  9
$DRAGMODE
 70
     1
  9
$LTSCALE
 40
1.0
  9
$OSMODE
 70
     0
  9
$ATTMODE
 70
     0
  9
$TEXTSIZE
 40
5.044092
  9
$TRACEWID
 40
1.0
  9
$TEXTSTYLE
  7
STANDARD
  9
$CLAYER
  8
0
  9
$CELTYPE
  6
CONTINUOUS
  9
$CECOLOR
 62
     7
  9
$CELTSCALE
 40
1.0
  9
$DELOBJ
 70
     1
  9
$DISPSILH
 70
     0
  9
$DIMSCALE
 40
1.0
  9
$DIMASZ
 40
4.572
  9
$DIMEXO
 40
1.5875
  9
$DIMDLI
 40
9.652
  9
$DIMRND
 40
0.0
  9
$DIMDLE
 40
0.0
  9
$DIMEXE
 40
4.572
  9
$DIMTP
 40
0.0
  9
$DIMTM
 40
0.0
  9
$DIMTXT
 40
1.64592
  9
$DIMCEN
 40
0.09
  9
$DIMTSZ
 40
0.0
  9
$DIMTOL
 70
     0
  9
$DIMLIM
 70
     0
  9
$DIMTIH
 70
     1
  9
$DIMTOH
 70
     1
  9
$DIMSE1
 70
     0
  9
$DIMSE2
 70
     0
  9
$DIMTAD
 70
     0
  9
$DIMZIN
 70
     0
  9
$DIMBLK
  1

  9
$DIMASO
 70
     1
  9
$DIMSHO
 70
     1
  9
$DIMPOST
  1

  9
$DIMAPOST
  1

  9
$DIMALT
 70
     0
  9
$DIMALTD
 70
     2
  9
$DIMALTF
 40
25.4
  9
$DIMLFAC
 40
1.0
  9
$DIMTOFL
 70
     0
  9
$DIMTVP
 40
0.0
  9
$DIMTIX
 70
     0
  9
$DIMSOXD
 70
     0
  9
$DIMSAH
 70
     0
  9
$DIMBLK1
  1

  9
$DIMBLK2
  1

  9
$DIMSTYLE
  2
STANDARD
  9
$DIMCLRD
 70
     0
  9
$DIMCLRE
 70
     0
  9
$DIMCLRT
 70
     0
  9
$DIMTFAC
 40
1.0
  9
$DIMGAP
 40
2.286
  9
$DIMJUST
 70
     0
  9
$DIMSD1
 70
     0
  9
$DIMSD2
 70
     0
  9
$DIMTOLJ
 70
     1
  9
$DIMTZIN
 70
     0
  9
$DIMALTZ
 70
     0
  9
$DIMALTTZ
 70
     0
  9
$DIMFIT
 70
     0
  9
$DIMUPT
 70
     0
  9
$DIMUNIT
 70
     2
  9
$DIMDEC
 70
     4
  9
$DIMTDEC
 70
     4
  9
$DIMALTU
 70
     2
  9
$DIMALTTD
 70
     2
  9
$DIMTXSTY
  7
STANDARD
  9
$DIMAUNIT
 70
     0
  9
$LUNITS
 70
     2
  9
$LUPREC
 70
     1
  9
$SKETCHINC
 40
1.0
  9
$FILLETRAD
 40
1.0
  9
$AUNITS
 70
     0
  9
$AUPREC
 70
     2
  9
$MENU
  1
acad
  9
$ELEVATION
 40
0.0
  9
$PELEVATION
 40
0.0
  9
$THICKNESS
 40
0.0
  9
$LIMCHECK
 70
     0
  9
$BLIPMODE
 70
     1
  9
$CHAMFERA
 40
0.0
  9
$CHAMFERB
 40
0.0
  9
$CHAMFERC
 40
0.0
  9
$CHAMFERD
 40
0.0
  9
$SKPOLY
 70
     0
  9
$TDCREATE
 40
0.000000000
  9
$TDUPDATE
 40
0.000000000
  9
$TDINDWG
 40
0.0000000000
  9
$TDUSRTIMER
 40
0.0000000000
  9
$USRTIMER
 70
     1
  9
$ANGBASE
 50
0.0
  9
$ANGDIR
 70
     0
  9
$PDMODE
 70
     0
  9
$PDSIZE
 40
0.0
  9
$PLINEWID
 40
0.0
  9
$COORDS
 70
     0
  9
$SPLFRAME
 70
     0
  9
$SPLINETYPE
 70
     6
  9
$SPLINESEGS
 70
    20
  9
$ATTDIA
 70
     0
  9
$ATTREQ
 70
     1
  9
$HANDLING
 70
     1
  9
$HANDSEED
  5
209
  9
$SURFTAB1
 70
     6
  9
$SURFTAB2
 70
     6
  9
$SURFTYPE
 70
     6
  9
$SURFU
 70
     6
  9
$SURFV
 70
     6
  9
$UCSNAME
  2

  9
$UCSORG
 10
0.0
 20
0.0
 30
0.0
  9
$UCSXDIR
 10
1.0
 20
0.0
 30
0.0
  9
$UCSYDIR
 10
0.0
 20
1.0
 30
0.0
  9
$PUCSNAME
  2

  9
$PUCSORG
 10
0.0
 20
0.0
 30
0.0
  9
$PUCSXDIR
 10
1.0
 20
0.0
 30
0.0
  9
$PUCSYDIR
 10
0.0
 20
1.0
 30
0.0
  9
$USERI1
 70
     0
  9
$USERI2
 70
     0
  9
$USERI3
 70
     0
  9
$USERI4
 70
     0
  9
$USERI5
 70
     0
  9
$USERR1
 40
0.0
  9
$USERR2
 40
0.0
  9
$USERR3
 40
0.0
  9
$USERR4
 40
0.0
  9
$USERR5
 40
0.0
  9
$WORLDVIEW
 70
     1
  9
$SHADEDGE
 70
     3
  9
$SHADEDIF
 70
    70
  9
$TILEMODE
 70
     1
  9
$MAXACTVP
 70
    16
  9
$PINSBASE
 10
0.0
 20
0.0
 30
0.0
  9
$PLIMCHECK
 70
     0
  9
$PEXTMIN
 10
0.0
 20
0.0
 30
0.0
  9
$PEXTMAX
 10
0.0
 20
0.0
 30
0.0
  9
$PLIMMIN
 10
0.0
 20
0.0
  9
$PLIMMAX
 10
0.0
 20
0.0
  9
$UNITMODE
 70
     0
  9
$VISRETAIN
 70
     0
  9
$PLINEGEN
 70
     1
  9
$PSLTSCALE
 70
     1
  9
$TREEDEPTH
 70
  3020
  9
$PICKSTYLE
 70
     1
  9
$CMLSTYLE
  2
STANDARD
  9
$CMLJUST
 70
     0
  9
$CMLSCALE
 40
1.0
  9
$PROXYGRAPHICS
 70
     0
  9
$MEASUREMENT
 70
     0
  0
ENDSEC
  0
SECTION
  2
CLASSES
  0
CLASS
  1
LWPOLYLINE
  2
AcDbPolyline
  3
"AutoCAD"
 90
        0
280
     0
281
     1
  0
CLASS
  1
IMAGE
  2
AcDbRasterImage
  3
ISM
 90
      127
280
     0
281
     1
  0
CLASS
  1
OLE2FRAME
  2
AcDbOle2Frame
  3
""
 90
        0
280
     0
281
     1
  0
CLASS
  1
HATCH
  2
AcDbHatch
  3
"ACAD_SEDONA"
 90
        0
280
     0
281
     1
  0
CLASS
  1
DICTIONARYVAR
  2
AcDbDictionaryVar
  3
"AutoCAD"
 90
        0
280
     0
281
     0
  0
CLASS
  1
RASTERVARIABLES
  2
AcDbRasterVariables
  3
ISM
 90
        0
280
     0
281
     0
  0
CLASS
  1
IMAGEDEF
  2
AcDbRasterImageDef
  3
ISM
 90
        0
280
     0
281
     0
  0
CLASS
  1
IMAGEDEF_REACTOR
  2
AcDbRasterImageDefReactor
  3
ISM
 90
        1
280
     0
281
     0
  0
CLASS
  1
IDBUFFER
  2
AcDbIdBuffer
  3
"Acad"
 90
        0
280
     0
281
     0
  0
CLASS
  1
SPATIAL_FILTER
  2
AcDbSpatialFilter
  3
"Acad"
 90
        0
280
     0
281
     0
  0
CLASS
  1
XRECORD
  2
AcDbXrecord
  3
"<Built In>"
 90
        0
280
     0
281
     0
  0
CLASS
  1
SORTENTSTABLE
  2
AcDbSortentsTable
  3
"AutoCAD"
 90
        0
280
     0
281
     0
  0
CLASS
  1
LAYER_INDEX
  2
AcDbLayerIndex
  3
"Acad"
 90
        0
280
     0
281
     0
  0
CLASS
  1
SPATIAL_INDEX
  2
AcDbSpatialIndex
  3
"Acad"
 90
        0
280
     0
281
     0
  0
CLASS
  1
OBJECT_PTR
  2
CAseDLPNTableRecord
  3
"ASE-LPNTableRecord"
 90
        1
280
     0
281
     0
  0
ENDSEC
  0
SECTION
  2
TABLES
  0
TABLE
  2
VPORT
  5
7
100
AcDbSymbolTable
 70
     1
  0
VPORT
  5
15
100
AcDbSymbolTableRecord
100
AcDbViewportTableRecord
  2
*ACTIVE
 70
     0
 10
0.0
 20
0.0
 11
1.0
 21
1.0
 12
0.0
 22
0.0
 13
0.0
 23
0.0
 14
5.0
 24
5.0
 15
5.0
 25
5.0
 16
0.0
 26
0.0
 36
1.0
 17
1241.865643
 27
402.159556
 37
2.0
 40
4256.39209
 41
1.116438
 42
50.0
 43
0.0
 44
0.0
 50
0.0
 51
0.0
 71
     0
 72
   100
 73
     1
 74
     1
 75
     0
 76
     1
 77
     0
 78
     0
  0
ENDTAB
  0
TABLE
  2
LTYPE
  5
4
100
AcDbSymbolTable
 70
    17
  0
LTYPE
  5
11
100
AcDbSymbolTableRecord
100
AcDbLinetypeTableRecord
  2
BYBLOCK
 70
     0
  3

 72
    65
 73
     0
 40
0.0
  0
LTYPE
  5
12
100
AcDbSymbolTableRecord
100
AcDbLinetypeTableRecord
  2
BYLAYER
 70
     0
  3

 72
    65
 73
     0
 40
0.0
  0
LTYPE
  5
13
100
AcDbSymbolTableRecord
100
AcDbLinetypeTableRecord
  2
CONTINUOUS
 70
     0
  3
Solid line
 72
    65
 73
     0
 40
0.0
  0
LTYPE
  5
1E
100
AcDbSymbolTableRecord
100
AcDbLinetypeTableRecord
  2
BORDER
 70
     0
  3
BORDER
 72
    65
 73
     6
 40
1.75
 49
0.5
 74
     0
 49
-0.25
 74
     0
 49
0.5
 74
     0
 49
-0.25
 74
     0
 49
0.0
 74
     0
 49
-0.25
 74
     0
  0
LTYPE
  5
1F
100
AcDbSymbolTableRecord
100
AcDbLinetypeTableRecord
  2
CENTER
 70
     0
  3
CENTER
 72
    65
 73
     4
 40
2.0
 49
1.25
 74
     0
 49
-0.25
 74
     0
 49
0.25
 74
     0
 49
-0.25
 74
     0
  0
LTYPE
  5
20
100
AcDbSymbolTableRecord
100
AcDbLinetypeTableRecord
  2
DASHDOT
 70
     0
  3
DASHDOT
 72
    65
 73
     4
 40
1.0
 49
0.5
 74
     0
 49
-0.25
 74
     0
 49
0.0
 74
     0
 49
-0.25
 74
     0
  0
LTYPE
  5
21
100
AcDbSymbolTableRecord
100
AcDbLinetypeTableRecord
  2
DASHED
 70
     0
  3
DASHED
 72
    65
 73
     2
 40
0.75
 49
0.5
 74
     0
 49
-0.25
 74
     0
  0
LTYPE
  5
22
100
AcDbSymbolTableRecord
100
AcDbLinetypeTableRecord
  2
DIVIDE
 70
     0
  3
DIVIDE
 72
    65
 73
     6
 40
1.25
 49
0.5
 74
     0
 49
-0.25
 74
     0
 49
0.0
 74
     0
 49
-0.25
 74
     0
 49
0.0
 74
     0
 49
-0.25
 74
     0
  0
LTYPE
  5
23
100
AcDbSymbolTableRecord
100
AcDbLinetypeTableRecord
  2
DOT
 70
     0
  3
DOT
 72
    65
 73
     2
 40
0.25
 49
0.0
 74
     0
 49
-0.25
 74
     0
  0
LTYPE
  5
24
100
AcDbSymbolTableRecord
100
AcDbLinetypeTableRecord
  2
HIDDEN
 70
     0
  3
HIDDEN
 72
    65
 73
     2
 40
0.375
 49
0.25
 74
     0
 49
-0.125
 74
     0
  0
LTYPE
  5
25
100
AcDbSymbolTableRecord
100
AcDbLinetypeTableRecord
  2
PHANTOM
 70
     0
  3
PHANTOM
 72
    65
 73
     6
 40
2.5
 49
1.25
 74
     0
 49
-0.25
 74
     0
 49
0.25
 74
     0
 49
-0.25
 74
     0
 49
0.25
 74
     0
 49
-0.25
 74
     0
  0
LTYPE
  5
26
100
AcDbSymbolTableRecord
100
AcDbLinetypeTableRecord
  2
$INVISIBLE
 70
     0
  3
$INVISIBLE
 72
    65
 73
     2
 40
200.0
 49
-100.0
 74
     0
 49
-100.0
 74
     0
  0
LTYPE
  5
27
100
AcDbSymbolTableRecord
100
AcDbLinetypeTableRecord
  2
$AUXILIARY
 70
     0
  3
$AUXILIARY
 72
    65
 73
     2
 40
0.1
 49
0.05
 74
     0
 49
-0.05
 74
     0
  0
LTYPE
  5
28
100
AcDbSymbolTableRecord
100
AcDbLinetypeTableRecord
  2
$CONSTRUCTION
 70
     0
  3
$CONSTRUCTION
 72
    65
 73
     4
 40
0.3
 49
0.2
 74
     0
 49
-0.05
 74
     0
 49
0.0
 74
     0
 49
-0.05
 74
     0
  0
LTYPE
  5
29
100
AcDbSymbolTableRecord
100
AcDbLinetypeTableRecord
  2
$SNAPEXT
 70
     0
  3
$SNAPEXT
 72
    65
 73
     2
 40
0.04
 49
0.02
 74
     0
 49
-0.02
 74
     0
  0
LTYPE
  5
2A
100
AcDbSymbolTableRecord
100
AcDbLinetypeTableRecord
  2
DCAD_SOLID
 70
    64
  3
DCAD_SOLID
 72
    65
 73
     0
 40
0.0
  0
LTYPE
  5
2B
100
AcDbSymbolTableRecord
100
AcDbLinetypeTableRecord
  2
DCAD_BORDER
 70
    64
  3
DCAD_BORDER
 72
    65
 73
     6
 40
37.0
 49
9.0
 74
     0
 49
-6.0
 74
     0
 49
9.0
 74
     0
 49
-6.0
 74
     0
 49
1.0
 74
     0
 49
-6.0
 74
     0
  0
ENDTAB
  0
TABLE
  2
LAYER
  5
2
100
AcDbSymbolTable
 70
     4
  0
LAYER
  5
14
100
AcDbSymbolTableRecord
100
AcDbLayerTableRecord
  2
0
 70
     0
 62
     7
  6
CONTINUOUS
  0
LAYER
  5
2C
100
AcDbSymbolTableRecord
100
AcDbLayerTableRecord
  2
1
 70
     0
 62
     7
  6
CONTINUOUS
  0
LAYER
  5
2D
100
AcDbSymbolTableRecord
100
AcDbLayerTableRecord
  2
2
 70
     0
 62
     7
  6
CONTINUOUS
  0
LAYER
  5
2E
100
AcDbSymbolTableRecord
100
AcDbLayerTableRecord
  2
$CONSTRUCTION
 70
     0
 62
     9
  6
$CONSTRUCTION
  0
ENDTAB
  0
TABLE
  2
STYLE
  5
3
100
AcDbSymbolTable
 70
    10
  0
STYLE
  5
17
100
AcDbSymbolTableRecord
100
AcDbTextStyleTableRecord
  2
STANDARD
 70
     0
 40
0.0
 41
1.0
 50
0.0
 71
     0
 42
0.0
  3
TXT
  4

  0
STYLE
  5
30
100
AcDbSymbolTableRecord
100
AcDbTextStyleTableRecord
  2
_TCW_TXTSTY_1
 70
     0
 40
0.6
 41
1.0
 50
0.0
 71
     0
 42
0.6
  3
TIMES.TTF
  4

1001
ACAD
1000
Times New Roman
1071
       34
  0
STYLE
  5
31
100
AcDbSymbolTableRecord
100
AcDbTextStyleTableRecord
  2
_TCW_TXTSTY_2
 70
     0
 40
0.15
 41
1.0
 50
0.0
 71
     0
 42
0.15
  3
TIMES.TTF
  4

1001
ACAD
1000
Times New Roman
1071
       34
  0
STYLE
  5
32
100
AcDbSymbolTableRecord
100
AcDbTextStyleTableRecord
  2
_TCW_TXTSTY_3
 70
     0
 40
0.6
 41
1.0
 50
0.0
 71
     0
 42
0.6
  3
TIMES.TTF
  4

1001
ACAD
1000
Times New Roman
1071
       34
  0
STYLE
  5
33
100
AcDbSymbolTableRecord
100
AcDbTextStyleTableRecord
  2
_TCW_TXTSTY_4
 70
     0
 40
0.638889
 41
1.0
 50
0.0
 71
     0
 42
0.638889
  3
ARIAL.TTF
  4

1001
ACAD
1000
Arial
1071
       34
  0
STYLE
  5
34
100
AcDbSymbolTableRecord
100
AcDbTextStyleTableRecord
  2
_TCW_TXTSTY_5
 70
     0
 40
0.0
 41
1.0
 50
0.0
 71
     0
 42
0.0
  3
TIMES.TTF
  4

  0
STYLE
  5
35
100
AcDbSymbolTableRecord
100
AcDbTextStyleTableRecord
  2
_TCW_TXTSTY_6
 70
     0
 40
0.0
 41
1.0
 50
0.0
 71
     0
 42
0.0
  3
TIMES.TTF
  4

  0
STYLE
  5
36
100
AcDbSymbolTableRecord
100
AcDbTextStyleTableRecord
  2
_TCW_TXTSTY_7
 70
     0
 40
0.2
 41
1.0
 50
0.0
 71
     0
 42
0.2
  3
TIMES.TTF
  4

  0
STYLE
  5
37
100
AcDbSymbolTableRecord
100
AcDbTextStyleTableRecord
  2
_TCW_TXTSTY_8
 70
     0
 40
1.0
 41
1.0
 50
0.0
 71
     0
 42
1.0
  3
TIMES.TTF
  4

  0
STYLE
  5
38
100
AcDbSymbolTableRecord
100
AcDbTextStyleTableRecord
  2

 70
    65
 40
0.2
 41
1.0
 50
0.0
 71
     0
 42
0.2
  3
LTYPESHP.SHX
  4

  0
ENDTAB
  0
TABLE
  2
VIEW
  5
5
100
AcDbSymbolTable
 70
     1
  0
VIEW
  5
2F
100
AcDbSymbolTableRecord
100
AcDbViewTableRecord
  2
VIEW_0
 70
     0
 40
8.267716
 10
5.846457
 20
4.133858
 41
11.692913
 11
0.0
 21
0.0
 31
1.0
 12
0.0
 22
0.0
 32
0.0
 42
50.0
 43
0.0
 44
0.0
 50
0.0
 71
     0
  0
ENDTAB
  0
TABLE
  2
UCS
  5
6
100
AcDbSymbolTable
 70
     0
  0
ENDTAB
  0
TABLE
  2
APPID
  5
8
100
AcDbSymbolTable
 70
     2
  0
APPID
  5
16
100
AcDbSymbolTableRecord
100
AcDbRegAppTableRecord
  2
ACAD
 70
     0
  0
APPID
  5
1D
100
AcDbSymbolTableRecord
100
AcDbRegAppTableRecord
  2
TCAD
 70
     0
  0
ENDTAB
  0
TABLE
  2
DIMSTYLE
  5
9
100
AcDbSymbolTable
 70
     1
  0
DIMSTYLE
105
18
100
AcDbSymbolTableRecord
100
AcDbDimStyleTableRecord
  2
STANDARD
 70
     0
  3

  4

  5

  6

  7

 40
1.0
 41
4.572
 42
1.5875
 43
9.652
 44
4.572
 45
0.0
 46
0.0
 47
0.0
 48
0.0
140
1.64592
141
0.09
142
0.0
143
25.4
144
1.0
145
0.0
146
1.0
147
2.286
 71
     0
 72
     0
 73
     1
 74
     1
 75
     0
 76
     0
 77
     0
 78
     0
170
     0
171
     2
172
     0
173
     0
174
     0
175
     0
176
     0
177
     0
178
     0
270
     2
271
     4
272
     4
273
     2
274
     2
340
17
275
     0
280
     0
281
     0
282
     0
283
     1
284
     0
285
     0
286
     0
287
     0
288
     0
  0
ENDTAB
  0
TABLE
  2
BLOCK_RECORD
  5
1
100
AcDbSymbolTable
 70
     0
  0
BLOCK_RECORD
  5
A
100
AcDbSymbolTableRecord
100
AcDbBlockTableRecord
  2
*MODEL_SPACE
  0
BLOCK_RECORD
  5
B
100
AcDbSymbolTableRecord
100
AcDbBlockTableRecord
  2
*PAPER_SPACE
  0
ENDTAB
  0
ENDSEC
  0
SECTION
  2
BLOCKS
  0
BLOCK
  5
D
100
AcDbEntity
  8
0
100
AcDbBlockBegin
  2
*MODEL_SPACE
 70
     0
 10
0.0
 20
0.0
 30
0.0
  3
*MODEL_SPACE
  1

  0
ENDBLK
  5
E
100
AcDbEntity
  8
0
100
AcDbBlockEnd
  0
BLOCK
  5
F
100
AcDbEntity
 67
     1
  8
0
100
AcDbBlockBegin
  2
*PAPER_SPACE
 70
     0
 10
0.0
 20
0.0
 30
0.0
  3
*PAPER_SPACE
  1

  0
ENDBLK
  5
10
100
AcDbEntity
 67
     1
  8
0
100
AcDbBlockEnd
  0
ENDSEC
  0
SECTION
  2
ENTITIES
  0
POLYLINE
  5
39
100
AcDbEntity
  8
1
  6
DCAD_SOLID
 62
     7
 48
2.0
100
AcDb2dPolyline
 66
     1
 10
0.0
 20
0.0
 30
0.0
 70
   129
  0
VERTEX
  5
3A
100
AcDbEntity
  8
1
  6
DCAD_SOLID
 62
     7
 48
2.0
100
AcDbVertex
100
AcDb2dVertex
 10
1740.222138
 20
711.267912
 30
0.0
  0
VERTEX
  5
3B
100
AcDbEntity
  8
1
  6
DCAD_SOLID
 62
     7
 48
2.0
100
AcDbVertex
100
AcDb2dVertex
 10
2400.222137
 20
711.267912
 30
0.0
  0
VERTEX
  5
3C
100
AcDbEntity
  8
1
  6
DCAD_SOLID
 62
     7
 48
2.0
100
AcDbVertex
100
AcDb2dVertex
 10
2400.222137
 20
1201.267913
 30
0.0
  0
VERTEX
  5
3D
100
AcDbEntity
  8
1
  6
DCAD_SOLID
 62
     7
 48
2.0
100
AcDbVertex
100
AcDb2dVertex
 10
1740.222138
 20
1201.267913
 30
0.0
  0
VERTEX
  5
3E
100
AcDbEntity
  8
1
  6
DCAD_SOLID
 62
     7
 48
2.0
100
AcDbVertex
100
AcDb2dVertex
 10
1740.222138
 20
711.267912
 30
0.0
  0
SEQEND
  5
3F
100
AcDbEntity
  8
0
  0
POLYLINE
  5
40
100
AcDbEntity
  8
1
  6
DCAD_SOLID
 62
     7
 48
2.0
100
AcDb2dPolyline
 66
     1
 10
0.0
 20
0.0
 30
0.0
 70
   129
  0
VERTEX
  5
41
100
AcDbEntity
  8
1
  6
DCAD_SOLID
 62
     7
 48
2.0
100
AcDbVertex
100
AcDb2dVertex
 10
1227.524332
 20
21.267912
 30
0.0
  0
VERTEX
  5
42
100
AcDbEntity
  8
1
  6
DCAD_SOLID
 62
     7
 48
2.0
100
AcDbVertex
100
AcDb2dVertex
 10
627.524332
 20
21.267912
 30
0.0
  0
VERTEX
  5
43
100
AcDbEntity
  8
1
  6
DCAD_SOLID
 62
     7
 48
2.0
100
AcDbVertex
100
AcDb2dVertex
 10
627.524332
 20
121.267912
 30
0.0
  0
VERTEX
  5
44
100
AcDbEntity
  8
1
  6
DCAD_SOLID
 62
     7
 48
2.0
100
AcDbVertex
100
AcDb2dVertex
 10
727.524332
 20
121.267912
 30
0.0
  0
VERTEX
  5
45
100
AcDbEntity
  8
1
  6
DCAD_SOLID
 62
     7
 48
2.0
100
AcDbVertex
100
AcDb2dVertex
 10
727.524332
 20
134.267912
 30
0.0
  0
VERTEX
  5
46
100
AcDbEntity
  8
1
  6
DCAD_SOLID
 62
     7
 48
2.0
100
AcDbVertex
100
AcDb2dVertex
 10
615.524332
 20
134.267912
 30
0.0
  0
VERTEX
  5
47
100
AcDbEntity
  8
1
  6
DCAD_SOLID
 62
     7
 48
2.0
100
AcDbVertex
100
AcDb2dVertex
 10
615.524332
 20
234.267912
 30
0.0
  0
VERTEX
  5
48
100
AcDbEntity
  8
1
  6
DCAD_SOLID
 62
     7
 48
2.0
100
AcDbVertex
100
AcDb2dVertex
 10
627.524332
 20
234.267912
 30
0.0
  0
VERTEX
  5
49
100
AcDbEntity
  8
1
  6
DCAD_SOLID
 62
     7
 48
2.0
100
AcDbVertex
100
AcDb2dVertex
 10
627.524332
 20
421.267912
 30
0.0
  0
VERTEX
  5
4A
100
AcDbEntity
  8
1
  6
DCAD_SOLID
 62
     7
 48
2.0
100
AcDbVertex
100
AcDb2dVertex
 10
727.524332
 20
421.267912
 30
0.0
  0
VERTEX
  5
4B
100
AcDbEntity
  8
1
  6
DCAD_SOLID
 62
     7
 48
2.0
100
AcDbVertex
100
AcDb2dVertex
 10
727.524332
 20
434.267912
 30
0.0
  0
VERTEX
  5
4C
100
AcDbEntity
  8
1
  6
DCAD_SOLID
 62
     7
 48
2.0
100
AcDbVertex
100
AcDb2dVertex
 10
627.524332
 20
434.267912
 30
0.0
  0
VERTEX
  5
4D
100
AcDbEntity
  8
1
  6
DCAD_SOLID
 62
     7
 48
2.0
100
AcDbVertex
100
AcDb2dVertex
 10
627.524332
 20
534.267912
 30
0.0
  0
VERTEX
  5
4E
100
AcDbEntity
  8
1
  6
DCAD_SOLID
 62
     7
 48
2.0
100
AcDbVertex
100
AcDb2dVertex
 10
712.387669
 20
587.166062
 30
0.0
  0
VERTEX
  5
4F
100
AcDbEntity
  8
1
  6
DCAD_SOLID
 62
     7
 48
2.0
100
AcDbVertex
100
AcDb2dVertex
 10
706.039894
 20
597.349662
 30
0.0
  0
VERTEX
  5
50
100
AcDbEntity
  8
1
  6
DCAD_SOLID
 62
     7
 48
2.0
100
AcDbVertex
100
AcDb2dVertex
 10
790.903232
 20
650.2478
 30
0.0
  0
VERTEX
  5
51
100
AcDbEntity
  8
1
  6
DCAD_SOLID
 62
     7
 48
2.0
100
AcDbVertex
100
AcDb2dVertex
 10
797.251007
 20
640.0642
 30
0.0
  0
VERTEX
  5
52
100
AcDbEntity
  8
1
  6
DCAD_SOLID
 62
     7
 48
2.0
100
AcDbVertex
100
AcDb2dVertex
 10
927.524332
 20
721.267912
 30
0.0
  0
VERTEX
  5
53
100
AcDbEntity
  8
1
  6
DCAD_SOLID
 62
     7
 48
2.0
100
AcDbVertex
100
AcDb2dVertex
 10
927.524332
 20
521.267912
 30
0.0
  0
VERTEX
  5
54
100
AcDbEntity
  8
1
  6
DCAD_SOLID
 62
     7
 48
2.0
100
AcDbVertex
100
AcDb2dVertex
 10
1227.524332
 20
521.267912
 30
0.0
  0
VERTEX
  5
55
100
AcDbEntity
  8
1
  6
DCAD_SOLID
 62
     7
 48
2.0
100
AcDbVertex
100
AcDb2dVertex
 10
1227.524332
 20
21.267912
 30
0.0
  0
SEQEND
  5
56
100
AcDbEntity
  8
0
  0
POLYLINE
  5
57
100
AcDbEntity
  8
1
  6
DCAD_SOLID
 62
     7
 48
2.0
100
AcDb2dPolyline
 66
     1
 10
0.0
 20
0.0
 30
0.0
 70
   129
  0
VERTEX
  5
58
100
AcDbEntity
  8
1
  6
DCAD_SOLID
 62
     7
 48
2.0
100
AcDbVertex
100
AcDb2dVertex
 10
945.800388
 20
1201.267913
 30
0.0
  0
VERTEX
  5
59
100
AcDbEntity
  8
1
  6
DCAD_SOLID
 62
     7
 48
2.0
100
AcDbVertex
100
AcDb2dVertex
 10
945.800388
 20
701.267912
 30
0.0
  0
VERTEX
  5
5A
100
AcDbEntity
  8
1
  6
DCAD_SOLID
 62
     7
 48
2.0
100
AcDbVertex
100
AcDb2dVertex
 10
1245.800388
 20
701.267912
 30
0.0
  0
VERTEX
  5
5B
100
AcDbEntity
  8
1
  6
DCAD_SOLID
 62
     7
 48
2.0
100
AcDbVertex
100
AcDb2dVertex
 10
1245.800388
 20
501.267912
 30
0.0
  0
VERTEX
  5
5C
100
AcDbEntity
  8
1
  6
DCAD_SOLID
 62
     7
 48
2.0
100
AcDbVertex
100
AcDb2dVertex
 10
1376.073713
 20
582.471625
 30
0.0
  0
VERTEX
  5
5D
100
AcDbEntity
  8
1
  6
DCAD_SOLID
 62
     7
 48
2.0
100
AcDbVertex
100
AcDb2dVertex
 10
1382.421488
 20
572.288025
 30
0.0
  0
VERTEX
  5
5E
100
AcDbEntity
  8
1
  6
DCAD_SOLID
 62
     7
 48
2.0
100
AcDbVertex
100
AcDb2dVertex
 10
1467.284826
 20
625.186162
 30
0.0
  0
VERTEX
  5
5F
100
AcDbEntity
  8
1
  6
DCAD_SOLID
 62
     7
 48
2.0
100
AcDbVertex
100
AcDb2dVertex
 10
1460.937051
 20
635.369762
 30
0.0
  0
VERTEX
  5
60
100
AcDbEntity
  8
1
  6
DCAD_SOLID
 62
     7
 48
2.0
100
AcDbVertex
100
AcDb2dVertex
 10
1545.800388
 20
688.267912
 30
0.0
  0
VERTEX
  5
61
100
AcDbEntity
  8
1
  6
DCAD_SOLID
 62
     7
 48
2.0
100
AcDbVertex
100
AcDb2dVertex
 10
1545.800388
 20
788.267912
 30
0.0
  0
VERTEX
  5
62
100
AcDbEntity
  8
1
  6
DCAD_SOLID
 62
     7
 48
2.0
100
AcDbVertex
100
AcDb2dVertex
 10
1445.800388
 20
788.267912
 30
0.0
  0
VERTEX
  5
63
100
AcDbEntity
  8
1
  6
DCAD_SOLID
 62
     7
 48
2.0
100
AcDbVertex
100
AcDb2dVertex
 10
1445.800388
 20
801.267912
 30
0.0
  0
VERTEX
  5
64
100
AcDbEntity
  8
1
  6
DCAD_SOLID
 62
     7
 48
2.0
100
AcDbVertex
100
AcDb2dVertex
 10
1557.800388
 20
801.267912
 30
0.0
  0
VERTEX
  5
65
100
AcDbEntity
  8
1
  6
DCAD_SOLID
 62
     7
 48
2.0
100
AcDbVertex
100
AcDb2dVertex
 10
1557.800388
 20
901.267913
 30
0.0
  0
VERTEX
  5
66
100
AcDbEntity
  8
1
  6
DCAD_SOLID
 62
     7
 48
2.0
100
AcDbVertex
100
AcDb2dVertex
 10
1545.800388
 20
901.267913
 30
0.0
  0
VERTEX
  5
67
100
AcDbEntity
  8
1
  6
DCAD_SOLID
 62
     7
 48
2.0
100
AcDbVertex
100
AcDb2dVertex
 10
1545.800388
 20
1088.267913
 30
0.0
  0
VERTEX
  5
68
100
AcDbEntity
  8
1
  6
DCAD_SOLID
 62
     7
 48
2.0
100
AcDbVertex
100
AcDb2dVertex
 10
1445.800388
 20
1088.267913
 30
0.0
  0
VERTEX
  5
69
100
AcDbEntity
  8
1
  6
DCAD_SOLID
 62
     7
 48
2.0
100
AcDbVertex
100
AcDb2dVertex
 10
1445.800388
 20
1101.267913
 30
0.0
  0
VERTEX
  5
6A
100
AcDbEntity
  8
1
  6
DCAD_SOLID
 62
     7
 48
2.0
100
AcDbVertex
100
AcDb2dVertex
 10
1545.800388
 20
1101.267913
 30
0.0
  0
VERTEX
  5
6B
100
AcDbEntity
  8
1
  6
DCAD_SOLID
 62
     7
 48
2.0
100
AcDbVertex
100
AcDb2dVertex
 10
1545.800388
 20
1201.267913
 30
0.0
  0
VERTEX
  5
6C
100
AcDbEntity
  8
1
  6
DCAD_SOLID
 62
     7
 48
2.0
100
AcDbVertex
100
AcDb2dVertex
 10
945.800388
 20
1201.267913
 30
0.0
  0
SEQEND
  5
6D
100
AcDbEntity
  8
0
  0
POLYLINE
  5
6E
100
AcDbEntity
  8
1
  6
DCAD_SOLID
 62
     7
 48
2.0
100
AcDb2dPolyline
 66
     1
 10
0.0
 20
0.0
 30
0.0
 70
   129
  0
VERTEX
  5
6F
100
AcDbEntity
  8
1
  6
DCAD_SOLID
 62
     7
 48
2.0
100
AcDbVertex
100
AcDb2dVertex
 10
1787.222138
 20
1088.767913
 30
0.0
  0
VERTEX
  5
70
100
AcDbEntity
  8
1
  6
DCAD_SOLID
 62
     7
 48
2.0
100
AcDbVertex
100
AcDb2dVertex
 10
1800.222138
 20
1088.767913
 30
0.0
  0
VERTEX
  5
71
100
AcDbEntity
  8
1
  6
DCAD_SOLID
 62
     7
 48
2.0
100
AcDbVertex
100
AcDb2dVertex
 10
1800.222138
 20
987.767913
 30
0.0
  0
VERTEX
  5
72
100
AcDbEntity
  8
1
  6
DCAD_SOLID
 62
     7
 48
2.0
100
AcDbVertex
100
AcDb2dVertex
 10
1787.222138
 20
987.767913
 30
0.0
  0
VERTEX
  5
73
100
AcDbEntity
  8
1
  6
DCAD_SOLID
 62
     7
 48
2.0
100
AcDbVertex
100
AcDb2dVertex
 10
1787.222138
 20
1088.767913
 30
0.0
  0
SEQEND
  5
74
100
AcDbEntity
  8
0
  0
POLYLINE
  5
75
100
AcDbEntity
  8
1
  6
DCAD_SOLID
 62
     7
 48
2.0
100
AcDb2dPolyline
 66
     1
 10
0.0
 20
0.0
 30
0.0
 70
   129
  0
VERTEX
  5
76
100
AcDbEntity
  8
1
  6
DCAD_SOLID
 62
     7
 48
2.0
100
AcDbVertex
100
AcDb2dVertex
 10
2353.222137
 20
800.75065
 30
0.0
  0
VERTEX
  5
77
100
AcDbEntity
  8
1
  6
DCAD_SOLID
 62
     7
 48
2.0
100
AcDbVertex
100
AcDb2dVertex
 10
2340.222137
 20
800.75065
 30
0.0
  0
VERTEX
  5
78
100
AcDbEntity
  8
1
  6
DCAD_SOLID
 62
     7
 48
2.0
100
AcDbVertex
100
AcDb2dVertex
 10
2340.222137
 20
901.75065
 30
0.0
  0
VERTEX
  5
79
100
AcDbEntity
  8
1
  6
DCAD_SOLID
 62
     7
 48
2.0
100
AcDbVertex
100
AcDb2dVertex
 10
2353.222137
 20
901.75065
 30
0.0
  0
SEQEND
  5
7A
100
AcDbEntity
  8
0
  0
POLYLINE
  5
7B
100
AcDbEntity
  8
1
  6
DCAD_SOLID
 62
     7
 48
2.0
100
AcDb2dPolyline
 66
     1
 10
0.0
 20
0.0
 30
0.0
 70
   129
  0
VERTEX
  5
7C
100
AcDbEntity
  8
1
  6
DCAD_SOLID
 62
     7
 48
2.0
100
AcDbVertex
100
AcDb2dVertex
 10
1740.222138
 20
495.727746
 30
0.0
  0
VERTEX
  5
7D
100
AcDbEntity
  8
1
  6
DCAD_SOLID
 62
     7
 48
2.0
100
AcDbVertex
100
AcDb2dVertex
 10
1787.222138
 20
495.727746
 30
0.0
  0
VERTEX
  5
7E
100
AcDbEntity
  8
1
  6
DCAD_SOLID
 62
     7
 48
2.0
100
AcDbVertex
100
AcDb2dVertex
 10
1787.222138
 20
596.727746
 30
0.0
  0
VERTEX
  5
7F
100
AcDbEntity
  8
1
  6
DCAD_SOLID
 62
     7
 48
2.0
100
AcDbVertex
100
AcDb2dVertex
 10
1800.222138
 20
596.727746
 30
0.0
  0
VERTEX
  5
80
100
AcDbEntity
  8
1
  6
DCAD_SOLID
 62
     7
 48
2.0
100
AcDbVertex
100
AcDb2dVertex
 10
1800.222138
 20
495.727746
 30
0.0
  0
VERTEX
  5
81
100
AcDbEntity
  8
1
  6
DCAD_SOLID
 62
     7
 48
2.0
100
AcDbVertex
100
AcDb2dVertex
 10
2340.222137
 20
495.727746
 30
0.0
  0
VERTEX
  5
82
100
AcDbEntity
  8
1
  6
DCAD_SOLID
 62
     7
 48
2.0
100
AcDbVertex
100
AcDb2dVertex
 10
2340.222137
 20
596.727746
 30
0.0
  0
VERTEX
  5
83
100
AcDbEntity
  8
1
  6
DCAD_SOLID
 62
     7
 48
2.0
100
AcDbVertex
100
AcDb2dVertex
 10
2353.222137
 20
596.727746
 30
0.0
  0
VERTEX
  5
84
100
AcDbEntity
  8
1
  6
DCAD_SOLID
 62
     7
 48
2.0
100
AcDbVertex
100
AcDb2dVertex
 10
2353.222137
 20
495.727746
 30
0.0
  0
VERTEX
  5
85
100
AcDbEntity
  8
1
  6
DCAD_SOLID
 62
     7
 48
2.0
100
AcDbVertex
100
AcDb2dVertex
 10
2400.222137
 20
495.727746
 30
0.0
  0
VERTEX
  5
86
100
AcDbEntity
  8
1
  6
DCAD_SOLID
 62
     7
 48
2.0
100
AcDbVertex
100
AcDb2dVertex
 10
2400.222137
 20
695.727746
 30
0.0
  0
VERTEX
  5
87
100
AcDbEntity
  8
1
  6
DCAD_SOLID
 62
     7
 48
2.0
100
AcDbVertex
100
AcDb2dVertex
 10
1740.222138
 20
695.727746
 30
0.0
  0
VERTEX
  5
88
100
AcDbEntity
  8
1
  6
DCAD_SOLID
 62
     7
 48
2.0
100
AcDbVertex
100
AcDb2dVertex
 10
1740.222138
 20
495.727746
 30
0.0
  0
SEQEND
  5
89
100
AcDbEntity
  8
0
  0
POLYLINE
  5
8A
100
AcDbEntity
  8
1
  6
DCAD_SOLID
 62
     7
 48
2.0
100
AcDb2dPolyline
 66
     1
 10
0.0
 20
0.0
 30
0.0
 70
   129
  0
VERTEX
  5
8B
100
AcDbEntity
  8
1
  6
DCAD_SOLID
 62
     7
 48
2.0
100
AcDbVertex
100
AcDb2dVertex
 10
20.222138
 20
1221.267913
 30
0.0
  0
VERTEX
  5
8C
100
AcDbEntity
  8
1
  6
DCAD_SOLID
 62
     7
 48
2.0
100
AcDbVertex
100
AcDb2dVertex
 10
20.222138
 20
1421.267913
 30
0.0
  0
VERTEX
  5
8D
100
AcDbEntity
  8
1
  6
DCAD_SOLID
 62
     7
 48
2.0
100
AcDbVertex
100
AcDb2dVertex
 10
680.222138
 20
1421.267913
 30
0.0
  0
VERTEX
  5
8E
100
AcDbEntity
  8
1
  6
DCAD_SOLID
 62
     7
 48
2.0
100
AcDbVertex
100
AcDb2dVertex
 10
680.222138
 20
1221.267913
 30
0.0
  0
VERTEX
  5
8F
100
AcDbEntity
  8
1
  6
DCAD_SOLID
 62
     7
 48
2.0
100
AcDbVertex
100
AcDb2dVertex
 10
633.222138
 20
1221.267913
 30
0.0
  0
VERTEX
  5
90
100
AcDbEntity
  8
1
  6
DCAD_SOLID
 62
     7
 48
2.0
100
AcDbVertex
100
AcDb2dVertex
 10
633.222138
 20
1322.267913
 30
0.0
  0
VERTEX
  5
91
100
AcDbEntity
  8
1
  6
DCAD_SOLID
 62
     7
 48
2.0
100
AcDbVertex
100
AcDb2dVertex
 10
620.222138
 20
1322.267913
 30
0.0
  0
VERTEX
  5
92
100
AcDbEntity
  8
1
  6
DCAD_SOLID
 62
     7
 48
2.0
100
AcDbVertex
100
AcDb2dVertex
 10
620.222138
 20
1221.267913
 30
0.0
  0
VERTEX
  5
93
100
AcDbEntity
  8
1
  6
DCAD_SOLID
 62
     7
 48
2.0
100
AcDbVertex
100
AcDb2dVertex
 10
80.222137
 20
1221.267913
 30
0.0
  0
VERTEX
  5
94
100
AcDbEntity
  8
1
  6
DCAD_SOLID
 62
     7
 48
2.0
100
AcDbVertex
100
AcDb2dVertex
 10
80.222137
 20
1322.267913
 30
0.0
  0
VERTEX
  5
95
100
AcDbEntity
  8
1
  6
DCAD_SOLID
 62
     7
 48
2.0
100
AcDbVertex
100
AcDb2dVertex
 10
67.222137
 20
1322.267913
 30
0.0
  0
VERTEX
  5
96
100
AcDbEntity
  8
1
  6
DCAD_SOLID
 62
     7
 48
2.0
100
AcDbVertex
100
AcDb2dVertex
 10
67.222137
 20
1221.267913
 30
0.0
  0
VERTEX
  5
97
100
AcDbEntity
  8
1
  6
DCAD_SOLID
 62
     7
 48
2.0
100
AcDbVertex
100
AcDb2dVertex
 10
20.222138
 20
1221.267913
 30
0.0
  0
SEQEND
  5
98
100
AcDbEntity
  8
0
  0
POLYLINE
  5
99
100
AcDbEntity
  8
1
  6
DCAD_SOLID
 62
     7
 48
2.0
100
AcDb2dPolyline
 66
     1
 10
0.0
 20
0.0
 30
0.0
 70
   129
  0
VERTEX
  5
9A
100
AcDbEntity
  8
1
  6
DCAD_SOLID
 62
     7
 48
2.0
100
AcDbVertex
100
AcDb2dVertex
 10
1300.222137
 20
1221.267913
 30
0.0
  0
VERTEX
  5
9B
100
AcDbEntity
  8
1
  6
DCAD_SOLID
 62
     7
 48
2.0
100
AcDbVertex
100
AcDb2dVertex
 10
1300.222137
 20
1458.267913
 30
0.0
  0
VERTEX
  5
9C
100
AcDbEntity
  8
1
  6
DCAD_SOLID
 62
     7
 48
2.0
100
AcDbVertex
100
AcDb2dVertex
 10
1351.222137
 20
1458.267913
 30
0.0
  0
VERTEX
  5
9D
100
AcDbEntity
  8
1
  6
DCAD_SOLID
 62
     7
 48
2.0
100
AcDbVertex
100
AcDb2dVertex
 10
1351.222137
 20
1471.267913
 30
0.0
  0
VERTEX
  5
9E
100
AcDbEntity
  8
1
  6
DCAD_SOLID
 62
     7
 48
2.0
100
AcDbVertex
100
AcDb2dVertex
 10
1300.222137
 20
1471.267913
 30
0.0
  0
VERTEX
  5
9F
100
AcDbEntity
  8
1
  6
DCAD_SOLID
 62
     7
 48
2.0
100
AcDbVertex
100
AcDb2dVertex
 10
1300.222137
 20
1496.267913
 30
0.0
  0
VERTEX
  5
A0
100
AcDbEntity
  8
1
  6
DCAD_SOLID
 62
     7
 48
2.0
100
AcDbVertex
100
AcDb2dVertex
 10
1325.222137
 20
1521.267913
 30
0.0
  0
VERTEX
  5
A1
100
AcDbEntity
  8
1
  6
DCAD_SOLID
 62
     7
 48
2.0
100
AcDbVertex
100
AcDb2dVertex
 10
2120.222137
 20
1521.267913
 30
0.0
  0
VERTEX
  5
A2
100
AcDbEntity
  8
1
  6
DCAD_SOLID
 62
     7
 48
2.0
100
AcDbVertex
100
AcDb2dVertex
 10
2188.903425
 20
1696.092987
 30
0.0
  0
VERTEX
  5
A3
100
AcDbEntity
  8
1
  6
DCAD_SOLID
 62
     7
 48
2.0
100
AcDbVertex
100
AcDb2dVertex
 10
2282.909325
 20
1659.1621
 30
0.0
  0
VERTEX
  5
A4
100
AcDbEntity
  8
1
  6
DCAD_SOLID
 62
     7
 48
2.0
100
AcDbVertex
100
AcDb2dVertex
 10
2287.6628
 20
1671.261862
 30
0.0
  0
VERTEX
  5
A5
100
AcDbEntity
  8
1
  6
DCAD_SOLID
 62
     7
 48
2.0
100
AcDbVertex
100
AcDb2dVertex
 10
2193.6569
 20
1708.192762
 30
0.0
  0
VERTEX
  5
A6
100
AcDbEntity
  8
1
  6
DCAD_SOLID
 62
     7
 48
2.0
100
AcDbVertex
100
AcDb2dVertex
 10
2230.222137
 20
1801.267913
 30
0.0
  0
VERTEX
  5
A7
100
AcDbEntity
  8
1
  6
DCAD_SOLID
 62
     7
 48
2.0
100
AcDbVertex
100
AcDb2dVertex
 10
2400.222137
 20
1734.482187
 30
0.0
  0
VERTEX
  5
A8
100
AcDbEntity
  8
1
  6
DCAD_SOLID
 62
     7
 48
2.0
100
AcDbVertex
100
AcDb2dVertex
 10
2400.222137
 20
1471.267913
 30
0.0
  0
VERTEX
  5
A9
100
AcDbEntity
  8
1
  6
DCAD_SOLID
 62
     7
 48
2.0
100
AcDbVertex
100
AcDb2dVertex
 10
2349.222137
 20
1471.267913
 30
0.0
  0
VERTEX
  5
AA
100
AcDbEntity
  8
1
  6
DCAD_SOLID
 62
     7
 48
2.0
100
AcDbVertex
100
AcDb2dVertex
 10
2349.222137
 20
1458.267913
 30
0.0
  0
VERTEX
  5
AB
100
AcDbEntity
  8
1
  6
DCAD_SOLID
 62
     7
 48
2.0
100
AcDbVertex
100
AcDb2dVertex
 10
2400.222137
 20
1458.267913
 30
0.0
  0
VERTEX
  5
AC
100
AcDbEntity
  8
1
  6
DCAD_SOLID
 62
     7
 48
2.0
100
AcDbVertex
100
AcDb2dVertex
 10
2400.222137
 20
1221.267913
 30
0.0
  0
VERTEX
  5
AD
100
AcDbEntity
  8
1
  6
DCAD_SOLID
 62
     7
 48
2.0
100
AcDbVertex
100
AcDb2dVertex
 10
2261.222137
 20
1221.267913
 30
0.0
  0
VERTEX
  5
AE
100
AcDbEntity
  8
1
  6
DCAD_SOLID
 62
     7
 48
2.0
100
AcDbVertex
100
AcDb2dVertex
 10
2261.222137
 20
1346.267913
 30
0.0
  0
VERTEX
  5
AF
100
AcDbEntity
  8
1
  6
DCAD_SOLID
 62
     7
 48
2.0
100
AcDbVertex
100
AcDb2dVertex
 10
2248.222137
 20
1346.267913
 30
0.0
  0
VERTEX
  5
B0
100
AcDbEntity
  8
1
  6
DCAD_SOLID
 62
     7
 48
2.0
100
AcDbVertex
100
AcDb2dVertex
 10
2248.222137
 20
1221.267913
 30
0.0
  0
VERTEX
  5
B1
100
AcDbEntity
  8
1
  6
DCAD_SOLID
 62
     7
 48
2.0
100
AcDbVertex
100
AcDb2dVertex
 10
1643.222137
 20
1221.267913
 30
0.0
  0
VERTEX
  5
B2
100
AcDbEntity
  8
1
  6
DCAD_SOLID
 62
     7
 48
2.0
100
AcDbVertex
100
AcDb2dVertex
 10
1613.222137
 20
1251.267913
 30
0.0
  0
VERTEX
  5
B3
100
AcDbEntity
  8
1
  6
DCAD_SOLID
 62
     7
 48
2.0
100
AcDbVertex
100
AcDb2dVertex
 10
1613.222137
 20
1346.267913
 30
0.0
  0
VERTEX
  5
B4
100
AcDbEntity
  8
1
  6
DCAD_SOLID
 62
     7
 48
2.0
100
AcDbVertex
100
AcDb2dVertex
 10
1600.222137
 20
1346.267913
 30
0.0
  0
VERTEX
  5
B5
100
AcDbEntity
  8
1
  6
DCAD_SOLID
 62
     7
 48
2.0
100
AcDbVertex
100
AcDb2dVertex
 10
1600.222137
 20
1221.267913
 30
0.0
  0
VERTEX
  5
B6
100
AcDbEntity
  8
1
  6
DCAD_SOLID
 62
     7
 48
2.0
100
AcDbVertex
100
AcDb2dVertex
 10
1300.222137
 20
1221.267913
 30
0.0
  0
SEQEND
  5
B7
100
AcDbEntity
  8
0
  0
CIRCLE
  5
B8
100
AcDbEntity
  8
1
  6
DCAD_SOLID
 62
     7
 48
2.0
100
AcDbCircle
 10
1960.222137
 20
1271.267913
 30
0.0
 40
13.0
  0
CIRCLE
  5
B9
100
AcDbEntity
  8
1
  6
DCAD_SOLID
 62
     7
 48
2.0
100
AcDbCircle
 10
1960.222137
 20
1381.267913
 30
0.0
 40
13.0
  0
CIRCLE
  5
BA
100
AcDbEntity
  8
1
  6
DCAD_SOLID
 62
     7
 48
2.0
100
AcDbCircle
 10
1960.222137
 20
1326.267913
 30
0.0
 40
13.0
  0
POLYLINE
  5
BB
100
AcDbEntity
  8
1
  6
DCAD_SOLID
 62
     7
 48
2.0
100
AcDb2dPolyline
 66
     1
 10
0.0
 20
0.0
 30
0.0
 70
   129
  0
VERTEX
  5
BC
100
AcDbEntity
  8
1
  6
DCAD_SOLID
 62
     7
 48
2.0
100
AcDbVertex
100
AcDb2dVertex
 10
247.904519
 20
1858.590608
 30
0.0
  0
VERTEX
  5
BD
100
AcDbEntity
  8
1
  6
DCAD_SOLID
 62
     7
 48
2.0
100
AcDbVertex
100
AcDb2dVertex
 10
247.904519
 20
1738.590608
 30
0.0
  0
VERTEX
  5
BE
100
AcDbEntity
  8
1
  6
DCAD_SOLID
 62
     7
 48
2.0
100
AcDbVertex
100
AcDb2dVertex
 10
294.904519
 20
1658.590608
 30
0.0
  0
VERTEX
  5
BF
100
AcDbEntity
  8
1
  6
DCAD_SOLID
 62
     7
 48
2.0
100
AcDbVertex
100
AcDb2dVertex
 10
327.904519
 20
1658.590608
 30
0.0
  0
VERTEX
  5
C0
100
AcDbEntity
  8
1
  6
DCAD_SOLID
 62
     7
 48
2.0
100
AcDbVertex
100
AcDb2dVertex
 10
327.904519
 20
1558.590608
 30
0.0
  0
VERTEX
  5
C1
100
AcDbEntity
  8
1
  6
DCAD_SOLID
 62
     7
 48
2.0
100
AcDbVertex
100
AcDb2dVertex
 10
737.904519
 20
1558.590608
 30
0.0
  0
VERTEX
  5
C2
100
AcDbEntity
  8
1
  6
DCAD_SOLID
 62
     7
 48
2.0
100
AcDbVertex
100
AcDb2dVertex
 10
737.904519
 20
1658.590608
 30
0.0
  0
VERTEX
  5
C3
100
AcDbEntity
  8
1
  6
DCAD_SOLID
 62
     7
 48
2.0
100
AcDbVertex
100
AcDb2dVertex
 10
770.904519
 20
1658.590608
 30
0.0
  0
VERTEX
  5
C4
100
AcDbEntity
  8
1
  6
DCAD_SOLID
 62
     7
 48
2.0
100
AcDbVertex
100
AcDb2dVertex
 10
817.904519
 20
1738.590608
 30
0.0
  0
VERTEX
  5
C5
100
AcDbEntity
  8
1
  6
DCAD_SOLID
 62
     7
 48
2.0
100
AcDbVertex
100
AcDb2dVertex
 10
817.904519
 20
1858.590608
 30
0.0
  0
VERTEX
  5
C6
100
AcDbEntity
  8
1
  6
DCAD_SOLID
 62
     7
 48
2.0
100
AcDbVertex
100
AcDb2dVertex
 10
770.904519
 20
1858.590608
 30
0.0
  0
VERTEX
  5
C7
100
AcDbEntity
  8
1
  6
DCAD_SOLID
 62
     7
 48
2.0
100
AcDbVertex
100
AcDb2dVertex
 10
770.904519
 20
1758.590608
 30
0.0
  0
VERTEX
  5
C8
100
AcDbEntity
  8
1
  6
DCAD_SOLID
 62
     7
 48
2.0
100
AcDbVertex
100
AcDb2dVertex
 10
757.904519
 20
1758.590608
 30
0.0
  0
VERTEX
  5
C9
100
AcDbEntity
  8
1
  6
DCAD_SOLID
 62
     7
 48
2.0
100
AcDbVertex
100
AcDb2dVertex
 10
757.904519
 20
1858.590608
 30
0.0
  0
VERTEX
  5
CA
100
AcDbEntity
  8
1
  6
DCAD_SOLID
 62
     7
 48
2.0
100
AcDbVertex
100
AcDb2dVertex
 10
307.904519
 20
1858.590608
 30
0.0
  0
VERTEX
  5
CB
100
AcDbEntity
  8
1
  6
DCAD_SOLID
 62
     7
 48
2.0
100
AcDbVertex
100
AcDb2dVertex
 10
307.904519
 20
1758.590608
 30
0.0
  0
VERTEX
  5
CC
100
AcDbEntity
  8
1
  6
DCAD_SOLID
 62
     7
 48
2.0
100
AcDbVertex
100
AcDb2dVertex
 10
294.904519
 20
1758.590608
 30
0.0
  0
VERTEX
  5
CD
100
AcDbEntity
  8
1
  6
DCAD_SOLID
 62
     7
 48
2.0
100
AcDbVertex
100
AcDb2dVertex
 10
294.904519
 20
1858.590608
 30
0.0
  0
VERTEX
  5
CE
100
AcDbEntity
  8
1
  6
DCAD_SOLID
 62
     7
 48
2.0
100
AcDbVertex
100
AcDb2dVertex
 10
247.904519
 20
1858.590608
 30
0.0
  0
SEQEND
  5
CF
100
AcDbEntity
  8
0
  0
POLYLINE
  5
D0
100
AcDbEntity
  8
1
  6
DCAD_SOLID
 62
     7
 48
2.0
100
AcDb2dPolyline
 66
     1
 10
0.0
 20
0.0
 30
0.0
 70
   129
  0
VERTEX
  5
D1
100
AcDbEntity
  8
1
  6
DCAD_SOLID
 62
     7
 48
2.0
100
AcDbVertex
100
AcDb2dVertex
 10
100.222138
 20
2040.767913
 30
0.0
  0
VERTEX
  5
D2
100
AcDbEntity
  8
1
  6
DCAD_SOLID
 62
     7
 48
2.0
100
AcDbVertex
100
AcDb2dVertex
 10
120.222138
 20
2040.767913
 30
0.0
  0
VERTEX
  5
D3
100
AcDbEntity
  8
1
  6
DCAD_SOLID
 62
     7
 48
2.0
100
AcDbVertex
100
AcDb2dVertex
 10
120.222138
 20
2132.767913
 30
0.0
  0
VERTEX
  5
D4
100
AcDbEntity
  8
1
  6
DCAD_SOLID
 62
     7
 48
2.0
100
AcDbVertex
100
AcDb2dVertex
 10
100.222138
 20
2132.767913
 30
0.0
  0
VERTEX
  5
D5
100
AcDbEntity
  8
1
  6
DCAD_SOLID
 62
     7
 48
2.0
100
AcDbVertex
100
AcDb2dVertex
 10
100.222138
 20
2040.767913
 30
0.0
  0
SEQEND
  5
D6
100
AcDbEntity
  8
0
  0
POLYLINE
  5
D7
100
AcDbEntity
  8
1
  6
DCAD_SOLID
 62
     7
 48
2.0
100
AcDb2dPolyline
 66
     1
 10
0.0
 20
0.0
 30
0.0
 70
   129
  0
VERTEX
  5
D8
100
AcDbEntity
  8
1
  6
DCAD_SOLID
 62
     7
 48
2.0
100
AcDbVertex
100
AcDb2dVertex
 10
100.222138
 20
2312.767913
 30
0.0
  0
VERTEX
  5
D9
100
AcDbEntity
  8
1
  6
DCAD_SOLID
 62
     7
 48
2.0
100
AcDbVertex
100
AcDb2dVertex
 10
120.222138
 20
2312.767913
 30
0.0
  0
VERTEX
  5
DA
100
AcDbEntity
  8
1
  6
DCAD_SOLID
 62
     7
 48
2.0
100
AcDbVertex
100
AcDb2dVertex
 10
120.222138
 20
2220.767913
 30
0.0
  0
VERTEX
  5
DB
100
AcDbEntity
  8
1
  6
DCAD_SOLID
 62
     7
 48
2.0
100
AcDbVertex
100
AcDb2dVertex
 10
100.222138
 20
2220.767913
 30
0.0
  0
VERTEX
  5
DC
100
AcDbEntity
  8
1
  6
DCAD_SOLID
 62
     7
 48
2.0
100
AcDbVertex
100
AcDb2dVertex
 10
100.222138
 20
2312.767913
 30
0.0
  0
SEQEND
  5
DD
100
AcDbEntity
  8
0
  0
POLYLINE
  5
DE
100
AcDbEntity
  8
1
  6
DCAD_SOLID
 62
     7
 48
2.0
100
AcDb2dPolyline
 66
     1
 10
0.0
 20
0.0
 30
0.0
 70
   129
  0
VERTEX
  5
DF
100
AcDbEntity
  8
1
  6
DCAD_SOLID
 62
     7
 48
2.0
100
AcDbVertex
100
AcDb2dVertex
 10
20.222138
 20
2401.267913
 30
0.0
  0
VERTEX
  5
E0
100
AcDbEntity
  8
1
  6
DCAD_SOLID
 62
     7
 48
2.0
100
AcDbVertex
100
AcDb2dVertex
 10
520.222138
 20
2401.267913
 30
0.0
  0
VERTEX
  5
E1
100
AcDbEntity
  8
1
  6
DCAD_SOLID
 62
     7
 48
2.0
100
AcDbVertex
100
AcDb2dVertex
 10
520.222138
 20
1952.267913
 30
0.0
  0
VERTEX
  5
E2
100
AcDbEntity
  8
1
  6
DCAD_SOLID
 62
     7
 48
2.0
100
AcDbVertex
100
AcDb2dVertex
 10
20.222138
 20
1952.267913
 30
0.0
  0
VERTEX
  5
E3
100
AcDbEntity
  8
1
  6
DCAD_SOLID
 62
     7
 48
2.0
100
AcDbVertex
100
AcDb2dVertex
 10
20.222138
 20
2401.267913
 30
0.0
  0
SEQEND
  5
E4
100
AcDbEntity
  8
0
  0
POLYLINE
  5
E5
100
AcDbEntity
  8
1
  6
DCAD_SOLID
 62
     7
 48
2.0
100
AcDb2dPolyline
 66
     1
 10
0.0
 20
0.0
 30
0.0
 70
   129
  0
VERTEX
  5
E6
100
AcDbEntity
  8
1
  6
DCAD_SOLID
 62
     7
 48
2.0
100
AcDbVertex
100
AcDb2dVertex
 10
587.218306
 20
2401.267913
 30
0.0
  0
VERTEX
  5
E7
100
AcDbEntity
  8
1
  6
DCAD_SOLID
 62
     7
 48
2.0
100
AcDbVertex
100
AcDb2dVertex
 10
1237.218306
 20
2401.267913
 30
0.0
  0
VERTEX
  5
E8
100
AcDbEntity
  8
1
  6
DCAD_SOLID
 62
     7
 48
2.0
100
AcDbVertex
100
AcDb2dVertex
 10
1237.218306
 20
2281.767913
 30
0.0
  0
VERTEX
  5
E9
100
AcDbEntity
  8
1
  6
DCAD_SOLID
 62
     7
 48
2.0
100
AcDbVertex
100
AcDb2dVertex
 10
1477.218306
 20
2281.767913
 30
0.0
  0
VERTEX
  5
EA
100
AcDbEntity
  8
1
  6
DCAD_SOLID
 62
     7
 48
2.0
100
AcDbVertex
100
AcDb2dVertex
 10
1477.218306
 20
2071.767913
 30
0.0
  0
VERTEX
  5
EB
100
AcDbEntity
  8
1
  6
DCAD_SOLID
 62
     7
 48
2.0
100
AcDbVertex
100
AcDb2dVertex
 10
1237.218306
 20
2071.767913
 30
0.0
  0
VERTEX
  5
EC
100
AcDbEntity
  8
1
  6
DCAD_SOLID
 62
     7
 48
2.0
100
AcDbVertex
100
AcDb2dVertex
 10
1237.218306
 20
1952.267913
 30
0.0
  0
VERTEX
  5
ED
100
AcDbEntity
  8
1
  6
DCAD_SOLID
 62
     7
 48
2.0
100
AcDbVertex
100
AcDb2dVertex
 10
587.218306
 20
1952.267913
 30
0.0
  0
VERTEX
  5
EE
100
AcDbEntity
  8
1
  6
DCAD_SOLID
 62
     7
 48
2.0
100
AcDbVertex
100
AcDb2dVertex
 10
587.218306
 20
2041.767913
 30
0.0
  0
VERTEX
  5
EF
100
AcDbEntity
  8
1
  6
DCAD_SOLID
 62
     7
 48
2.0
100
AcDbVertex
100
AcDb2dVertex
 10
537.218306
 20
2041.767913
 30
0.0
  0
VERTEX
  5
F0
100
AcDbEntity
  8
1
  6
DCAD_SOLID
 62
     7
 48
2.0
100
AcDbVertex
100
AcDb2dVertex
 10
537.218306
 20
2131.767913
 30
0.0
  0
VERTEX
  5
F1
100
AcDbEntity
  8
1
  6
DCAD_SOLID
 62
     7
 48
2.0
100
AcDbVertex
100
AcDb2dVertex
 10
587.218306
 20
2131.767913
 30
0.0
  0
VERTEX
  5
F2
100
AcDbEntity
  8
1
  6
DCAD_SOLID
 62
     7
 48
2.0
100
AcDbVertex
100
AcDb2dVertex
 10
587.218306
 20
2221.767913
 30
0.0
  0
VERTEX
  5
F3
100
AcDbEntity
  8
1
  6
DCAD_SOLID
 62
     7
 48
2.0
100
AcDbVertex
100
AcDb2dVertex
 10
537.218306
 20
2221.767913
 30
0.0
  0
VERTEX
  5
F4
100
AcDbEntity
  8
1
  6
DCAD_SOLID
 62
     7
 48
2.0
100
AcDbVertex
100
AcDb2dVertex
 10
537.218306
 20
2311.767913
 30
0.0
  0
VERTEX
  5
F5
100
AcDbEntity
  8
1
  6
DCAD_SOLID
 62
     7
 48
2.0
100
AcDbVertex
100
AcDb2dVertex
 10
587.218306
 20
2311.767913
 30
0.0
  0
VERTEX
  5
F6
100
AcDbEntity
  8
1
  6
DCAD_SOLID
 62
     7
 48
2.0
100
AcDbVertex
100
AcDb2dVertex
 10
587.218306
 20
2401.267913
 30
0.0
  0
SEQEND
  5
F7
100
AcDbEntity
  8
0
  0
POLYLINE
  5
F8
100
AcDbEntity
  8
1
  6
DCAD_SOLID
 62
     7
 48
2.0
100
AcDb2dPolyline
 66
     1
 10
0.0
 20
0.0
 30
0.0
 70
   129
  0
VERTEX
  5
F9
100
AcDbEntity
  8
1
  6
DCAD_SOLID
 62
     7
 48
2.0
100
AcDbVertex
100
AcDb2dVertex
 10
1380.222138
 20
421.799129
 30
0.0
  0
VERTEX
  5
FA
100
AcDbEntity
  8
1
  6
DCAD_SOLID
 62
     7
 48
2.0
100
AcDbVertex
100
AcDb2dVertex
 10
1439.222138
 20
421.799129
 30
0.0
  0
VERTEX
  5
FB
100
AcDbEntity
  8
1
  6
DCAD_SOLID
 62
     7
 48
2.0
100
AcDbVertex
100
AcDb2dVertex
 10
1439.222138
 20
370.799129
 30
0.0
  0
VERTEX
  5
FC
100
AcDbEntity
  8
1
  6
DCAD_SOLID
 62
     7
 48
2.0
100
AcDbVertex
100
AcDb2dVertex
 10
1452.222138
 20
370.799129
 30
0.0
  0
VERTEX
  5
FD
100
AcDbEntity
  8
1
  6
DCAD_SOLID
 62
     7
 48
2.0
100
AcDbVertex
100
AcDb2dVertex
 10
1452.222138
 20
421.799129
 30
0.0
  0
VERTEX
  5
FE
100
AcDbEntity
  8
1
  6
DCAD_SOLID
 62
     7
 48
2.0
100
AcDbVertex
100
AcDb2dVertex
 10
2087.222138
 20
421.799129
 30
0.0
  0
VERTEX
  5
FF
100
AcDbEntity
  8
1
  6
DCAD_SOLID
 62
     7
 48
2.0
100
AcDbVertex
100
AcDb2dVertex
 10
2087.222138
 20
370.799129
 30
0.0
  0
VERTEX
  5
100
100
AcDbEntity
  8
1
  6
DCAD_SOLID
 62
     7
 48
2.0
100
AcDbVertex
100
AcDb2dVertex
 10
2100.222138
 20
370.799129
 30
0.0
  0
VERTEX
  5
101
100
AcDbEntity
  8
1
  6
DCAD_SOLID
 62
     7
 48
2.0
100
AcDbVertex
100
AcDb2dVertex
 10
2100.222138
 20
421.799129
 30
0.0
  0
VERTEX
  5
102
100
AcDbEntity
  8
1
  6
DCAD_SOLID
 62
     7
 48
2.0
100
AcDbVertex
100
AcDb2dVertex
 10
2400.222138
 20
421.799129
 30
0.0
  0
VERTEX
  5
103
100
AcDbEntity
  8
1
  6
DCAD_SOLID
 62
     7
 48
2.0
100
AcDbVertex
100
AcDb2dVertex
 10
2400.222138
 20
229.799129
 30
0.0
  0
VERTEX
  5
104
100
AcDbEntity
  8
1
  6
DCAD_SOLID
 62
     7
 48
2.0
100
AcDbVertex
100
AcDb2dVertex
 10
2350.222138
 20
229.799129
 30
0.0
  0
VERTEX
  5
105
100
AcDbEntity
  8
1
  6
DCAD_SOLID
 62
     7
 48
2.0
100
AcDbVertex
100
AcDb2dVertex
 10
2350.222138
 20
241.799129
 30
0.0
  0
VERTEX
  5
106
100
AcDbEntity
  8
1
  6
DCAD_SOLID
 62
     7
 48
2.0
100
AcDbVertex
100
AcDb2dVertex
 10
1350.222138
 20
241.799129
 30
0.0
  0
VERTEX
  5
107
100
AcDbEntity
  8
1
  6
DCAD_SOLID
 62
     7
 48
2.0
100
AcDbVertex
100
AcDb2dVertex
 10
1350.222138
 20
229.799129
 30
0.0
  0
VERTEX
  5
108
100
AcDbEntity
  8
1
  6
DCAD_SOLID
 62
     7
 48
2.0
100
AcDbVertex
100
AcDb2dVertex
 10
1300.222138
 20
229.799129
 30
0.0
  0
VERTEX
  5
109
100
AcDbEntity
  8
1
  6
DCAD_SOLID
 62
     7
 48
2.0
100
AcDbVertex
100
AcDb2dVertex
 10
1300.222138
 20
241.799129
 30
0.0
  0
VERTEX
  5
10A
100
AcDbEntity
  8
1
  6
DCAD_SOLID
 62
     7
 48
2.0
100
AcDbVertex
100
AcDb2dVertex
 10
1380.222138
 20
421.799129
 30
0.0
  0
SEQEND
  5
10B
100
AcDbEntity
  8
0
  0
POLYLINE
  5
10C
100
AcDbEntity
  8
1
  6
DCAD_SOLID
 62
     7
 48
2.0
100
AcDb2dPolyline
 66
     1
 10
0.0
 20
0.0
 30
0.0
 70
   129
  0
VERTEX
  5
10D
100
AcDbEntity
  8
1
  6
DCAD_SOLID
 62
     7
 48
2.0
100
AcDbVertex
100
AcDb2dVertex
 10
1380.222138
 20
213.267913
 30
0.0
  0
VERTEX
  5
10E
100
AcDbEntity
  8
1
  6
DCAD_SOLID
 62
     7
 48
2.0
100
AcDbVertex
100
AcDb2dVertex
 10
1439.222138
 20
213.267913
 30
0.0
  0
VERTEX
  5
10F
100
AcDbEntity
  8
1
  6
DCAD_SOLID
 62
     7
 48
2.0
100
AcDbVertex
100
AcDb2dVertex
 10
1439.222138
 20
162.267913
 30
0.0
  0
VERTEX
  5
110
100
AcDbEntity
  8
1
  6
DCAD_SOLID
 62
     7
 48
2.0
100
AcDbVertex
100
AcDb2dVertex
 10
1452.222138
 20
162.267913
 30
0.0
  0
VERTEX
  5
111
100
AcDbEntity
  8
1
  6
DCAD_SOLID
 62
     7
 48
2.0
100
AcDbVertex
100
AcDb2dVertex
 10
1452.222138
 20
213.267913
 30
0.0
  0
VERTEX
  5
112
100
AcDbEntity
  8
1
  6
DCAD_SOLID
 62
     7
 48
2.0
100
AcDbVertex
100
AcDb2dVertex
 10
2087.222137
 20
213.267913
 30
0.0
  0
VERTEX
  5
113
100
AcDbEntity
  8
1
  6
DCAD_SOLID
 62
     7
 48
2.0
100
AcDbVertex
100
AcDb2dVertex
 10
2087.222137
 20
162.267913
 30
0.0
  0
VERTEX
  5
114
100
AcDbEntity
  8
1
  6
DCAD_SOLID
 62
     7
 48
2.0
100
AcDbVertex
100
AcDb2dVertex
 10
2100.222137
 20
162.267913
 30
0.0
  0
VERTEX
  5
115
100
AcDbEntity
  8
1
  6
DCAD_SOLID
 62
     7
 48
2.0
100
AcDbVertex
100
AcDb2dVertex
 10
2100.222137
 20
213.267913
 30
0.0
  0
VERTEX
  5
116
100
AcDbEntity
  8
1
  6
DCAD_SOLID
 62
     7
 48
2.0
100
AcDbVertex
100
AcDb2dVertex
 10
2400.222137
 20
213.267913
 30
0.0
  0
VERTEX
  5
117
100
AcDbEntity
  8
1
  6
DCAD_SOLID
 62
     7
 48
2.0
100
AcDbVertex
100
AcDb2dVertex
 10
2400.222137
 20
21.267913
 30
0.0
  0
VERTEX
  5
118
100
AcDbEntity
  8
1
  6
DCAD_SOLID
 62
     7
 48
2.0
100
AcDbVertex
100
AcDb2dVertex
 10
2350.222137
 20
21.267913
 30
0.0
  0
VERTEX
  5
119
100
AcDbEntity
  8
1
  6
DCAD_SOLID
 62
     7
 48
2.0
100
AcDbVertex
100
AcDb2dVertex
 10
2350.222137
 20
33.267913
 30
0.0
  0
VERTEX
  5
11A
100
AcDbEntity
  8
1
  6
DCAD_SOLID
 62
     7
 48
2.0
100
AcDbVertex
100
AcDb2dVertex
 10
1350.222138
 20
33.267913
 30
0.0
  0
VERTEX
  5
11B
100
AcDbEntity
  8
1
  6
DCAD_SOLID
 62
     7
 48
2.0
100
AcDbVertex
100
AcDb2dVertex
 10
1350.222138
 20
21.267913
 30
0.0
  0
VERTEX
  5
11C
100
AcDbEntity
  8
1
  6
DCAD_SOLID
 62
     7
 48
2.0
100
AcDbVertex
100
AcDb2dVertex
 10
1300.222138
 20
21.267913
 30
0.0
  0
VERTEX
  5
11D
100
AcDbEntity
  8
1
  6
DCAD_SOLID
 62
     7
 48
2.0
100
AcDbVertex
100
AcDb2dVertex
 10
1300.222138
 20
33.267913
 30
0.0
  0
VERTEX
  5
11E
100
AcDbEntity
  8
1
  6
DCAD_SOLID
 62
     7
 48
2.0
100
AcDbVertex
100
AcDb2dVertex
 10
1380.222138
 20
213.267913
 30
0.0
  0
SEQEND
  5
11F
100
AcDbEntity
  8
0
  0
POLYLINE
  5
120
100
AcDbEntity
  8
1
  6
DCAD_SOLID
 62
     7
 48
2.0
100
AcDb2dPolyline
 66
     1
 10
0.0
 20
0.0
 30
0.0
 70
   129
  0
VERTEX
  5
121
100
AcDbEntity
  8
1
  6
DCAD_SOLID
 62
     7
 48
2.0
100
AcDbVertex
100
AcDb2dVertex
 10
2255.222138
 20
2237.267912
 30
0.0
  0
VERTEX
  5
122
100
AcDbEntity
  8
1
  6
DCAD_SOLID
 62
     7
 48
2.0
100
AcDbVertex
100
AcDb2dVertex
 10
2268.222138
 20
2237.267912
 30
0.0
  0
VERTEX
  5
123
100
AcDbEntity
  8
1
  6
DCAD_SOLID
 62
     7
 48
2.0
100
AcDbVertex
100
AcDb2dVertex
 10
2268.222138
 20
2135.267912
 30
0.0
  0
VERTEX
  5
124
100
AcDbEntity
  8
1
  6
DCAD_SOLID
 62
     7
 48
2.0
100
AcDbVertex
100
AcDb2dVertex
 10
2255.222138
 20
2135.267912
 30
0.0
  0
VERTEX
  5
125
100
AcDbEntity
  8
1
  6
DCAD_SOLID
 62
     7
 48
2.0
100
AcDbVertex
100
AcDb2dVertex
 10
2255.222138
 20
2237.267912
 30
0.0
  0
SEQEND
  5
126
100
AcDbEntity
  8
0
  0
POLYLINE
  5
127
100
AcDbEntity
  8
1
  6
DCAD_SOLID
 62
     7
 48
2.0
100
AcDb2dPolyline
 66
     1
 10
0.0
 20
0.0
 30
0.0
 70
   129
  0
VERTEX
  5
128
100
AcDbEntity
  8
1
  6
DCAD_SOLID
 62
     7
 48
2.0
100
AcDbVertex
100
AcDb2dVertex
 10
1720.222138
 20
2237.267912
 30
0.0
  0
VERTEX
  5
129
100
AcDbEntity
  8
1
  6
DCAD_SOLID
 62
     7
 48
2.0
100
AcDbVertex
100
AcDb2dVertex
 10
1707.222138
 20
2237.267912
 30
0.0
  0
VERTEX
  5
12A
100
AcDbEntity
  8
1
  6
DCAD_SOLID
 62
     7
 48
2.0
100
AcDbVertex
100
AcDb2dVertex
 10
1707.222138
 20
2135.267912
 30
0.0
  0
VERTEX
  5
12B
100
AcDbEntity
  8
1
  6
DCAD_SOLID
 62
     7
 48
2.0
100
AcDbVertex
100
AcDb2dVertex
 10
1720.222138
 20
2135.267912
 30
0.0
  0
VERTEX
  5
12C
100
AcDbEntity
  8
1
  6
DCAD_SOLID
 62
     7
 48
2.0
100
AcDbVertex
100
AcDb2dVertex
 10
1720.222138
 20
2237.267912
 30
0.0
  0
SEQEND
  5
12D
100
AcDbEntity
  8
0
  0
POLYLINE
  5
12E
100
AcDbEntity
  8
1
  6
DCAD_SOLID
 62
     7
 48
2.0
100
AcDb2dPolyline
 66
     1
 10
0.0
 20
0.0
 30
0.0
 70
   129
  0
VERTEX
  5
12F
100
AcDbEntity
  8
1
  6
DCAD_SOLID
 62
     7
 48
2.0
100
AcDbVertex
100
AcDb2dVertex
 10
2400.222137
 20
2401.267913
 30
0.0
  0
VERTEX
  5
130
100
AcDbEntity
  8
1
  6
DCAD_SOLID
 62
     7
 48
2.0
100
AcDbVertex
100
AcDb2dVertex
 10
2400.222138
 20
1981.267913
 30
0.0
  0
VERTEX
  5
131
100
AcDbEntity
  8
1
  6
DCAD_SOLID
 62
     7
 48
2.0
100
AcDbVertex
100
AcDb2dVertex
 10
2229.222138
 20
1891.267912
 30
0.0
  0
VERTEX
  5
132
100
AcDbEntity
  8
1
  6
DCAD_SOLID
 62
     7
 48
2.0
100
AcDbVertex
100
AcDb2dVertex
 10
2200.222138
 20
1891.267912
 30
0.0
  0
VERTEX
  5
133
100
AcDbEntity
  8
1
  6
DCAD_SOLID
 62
     7
 48
2.0
100
AcDbVertex
100
AcDb2dVertex
 10
2200.222138
 20
1947.267912
 30
0.0
  0
VERTEX
  5
134
100
AcDbEntity
  8
1
  6
DCAD_SOLID
 62
     7
 48
2.0
100
AcDbVertex
100
AcDb2dVertex
 10
1770.222138
 20
1947.267912
 30
0.0
  0
VERTEX
  5
135
100
AcDbEntity
  8
1
  6
DCAD_SOLID
 62
     7
 48
2.0
100
AcDbVertex
100
AcDb2dVertex
 10
1770.222138
 20
1891.267912
 30
0.0
  0
VERTEX
  5
136
100
AcDbEntity
  8
1
  6
DCAD_SOLID
 62
     7
 48
2.0
100
AcDbVertex
100
AcDb2dVertex
 10
1741.222138
 20
1891.267912
 30
0.0
  0
VERTEX
  5
137
100
AcDbEntity
  8
1
  6
DCAD_SOLID
 62
     7
 48
2.0
100
AcDbVertex
100
AcDb2dVertex
 10
1570.222138
 20
1981.267912
 30
0.0
  0
VERTEX
  5
138
100
AcDbEntity
  8
1
  6
DCAD_SOLID
 62
     7
 48
2.0
100
AcDbVertex
100
AcDb2dVertex
 10
1570.222138
 20
2401.267912
 30
0.0
  0
VERTEX
  5
139
100
AcDbEntity
  8
1
  6
DCAD_SOLID
 62
     7
 48
2.0
100
AcDbVertex
100
AcDb2dVertex
 10
1745.222138
 20
2401.267912
 30
0.0
  0
VERTEX
  5
13A
100
AcDbEntity
  8
1
  6
DCAD_SOLID
 62
     7
 48
2.0
100
AcDbVertex
100
AcDb2dVertex
 10
1745.222138
 20
2376.267912
 30
0.0
  0
VERTEX
  5
13B
100
AcDbEntity
  8
1
  6
DCAD_SOLID
 62
     7
 48
2.0
100
AcDbVertex
100
AcDb2dVertex
 10
1760.222138
 20
2376.267912
 30
0.0
  0
VERTEX
  5
13C
100
AcDbEntity
  8
1
  6
DCAD_SOLID
 62
     7
 48
2.0
100
AcDbVertex
100
AcDb2dVertex
 10
1760.222138
 20
2247.267912
 30
0.0
  0
VERTEX
  5
13D
100
AcDbEntity
  8
1
  6
DCAD_SOLID
 62
     7
 48
2.0
100
AcDbVertex
100
AcDb2dVertex
 10
1740.222138
 20
2247.267912
 30
0.0
  0
VERTEX
  5
13E
100
AcDbEntity
  8
1
  6
DCAD_SOLID
 62
     7
 48
2.0
100
AcDbVertex
100
AcDb2dVertex
 10
1740.222138
 20
2223.267912
 30
0.0
  0
VERTEX
  5
13F
100
AcDbEntity
  8
1
  6
DCAD_SOLID
 62
     7
 48
2.0
100
AcDbVertex
100
AcDb2dVertex
 10
1760.222138
 20
2223.267912
 30
0.0
  0
VERTEX
  5
140
100
AcDbEntity
  8
1
  6
DCAD_SOLID
 62
     7
 48
2.0
100
AcDbVertex
100
AcDb2dVertex
 10
1760.222138
 20
2184.267912
 30
0.0
  0
VERTEX
  5
141
100
AcDbEntity
  8
1
  6
DCAD_SOLID
 62
     7
 48
2.0
100
AcDbVertex
100
AcDb2dVertex
 10
1740.222138
 20
2184.267912
 30
0.0
  0
VERTEX
  5
142
100
AcDbEntity
  8
1
  6
DCAD_SOLID
 62
     7
 48
2.0
100
AcDbVertex
100
AcDb2dVertex
 10
1740.222138
 20
2160.267912
 30
0.0
  0
VERTEX
  5
143
100
AcDbEntity
  8
1
  6
DCAD_SOLID
 62
     7
 48
2.0
100
AcDbVertex
100
AcDb2dVertex
 10
2230.222138
 20
2160.267912
 30
0.0
  0
VERTEX
  5
144
100
AcDbEntity
  8
1
  6
DCAD_SOLID
 62
     7
 48
2.0
100
AcDbVertex
100
AcDb2dVertex
 10
2230.222138
 20
2184.267912
 30
0.0
  0
VERTEX
  5
145
100
AcDbEntity
  8
1
  6
DCAD_SOLID
 62
     7
 48
2.0
100
AcDbVertex
100
AcDb2dVertex
 10
2210.222138
 20
2184.267912
 30
0.0
  0
VERTEX
  5
146
100
AcDbEntity
  8
1
  6
DCAD_SOLID
 62
     7
 48
2.0
100
AcDbVertex
100
AcDb2dVertex
 10
2210.222138
 20
2223.267912
 30
0.0
  0
VERTEX
  5
147
100
AcDbEntity
  8
1
  6
DCAD_SOLID
 62
     7
 48
2.0
100
AcDbVertex
100
AcDb2dVertex
 10
2230.222138
 20
2223.267912
 30
0.0
  0
VERTEX
  5
148
100
AcDbEntity
  8
1
  6
DCAD_SOLID
 62
     7
 48
2.0
100
AcDbVertex
100
AcDb2dVertex
 10
2230.222138
 20
2247.267912
 30
0.0
  0
VERTEX
  5
149
100
AcDbEntity
  8
1
  6
DCAD_SOLID
 62
     7
 48
2.0
100
AcDbVertex
100
AcDb2dVertex
 10
2210.222138
 20
2247.267912
 30
0.0
  0
VERTEX
  5
14A
100
AcDbEntity
  8
1
  6
DCAD_SOLID
 62
     7
 48
2.0
100
AcDbVertex
100
AcDb2dVertex
 10
2210.222138
 20
2376.267912
 30
0.0
  0
VERTEX
  5
14B
100
AcDbEntity
  8
1
  6
DCAD_SOLID
 62
     7
 48
2.0
100
AcDbVertex
100
AcDb2dVertex
 10
2225.222138
 20
2376.267912
 30
0.0
  0
VERTEX
  5
14C
100
AcDbEntity
  8
1
  6
DCAD_SOLID
 62
     7
 48
2.0
100
AcDbVertex
100
AcDb2dVertex
 10
2225.222138
 20
2401.267912
 30
0.0
  0
VERTEX
  5
14D
100
AcDbEntity
  8
1
  6
DCAD_SOLID
 62
     7
 48
2.0
100
AcDbVertex
100
AcDb2dVertex
 10
2400.222137
 20
2401.267913
 30
0.0
  0
SEQEND
  5
14E
100
AcDbEntity
  8
0
  0
POLYLINE
  5
14F
100
AcDbEntity
  8
1
  6
DCAD_SOLID
 62
     7
 48
2.0
100
AcDb2dPolyline
 66
     1
 10
0.0
 20
0.0
 30
0.0
 70
   129
  0
VERTEX
  5
150
100
AcDbEntity
  8
1
  6
DCAD_SOLID
 62
     7
 48
2.0
100
AcDbVertex
100
AcDb2dVertex
 10
2119.722137
 20
522.227746
 30
0.0
  0
VERTEX
  5
151
100
AcDbEntity
  8
1
  6
DCAD_SOLID
 62
     7
 48
2.0
100
AcDbVertex
100
AcDb2dVertex
 10
2220.722137
 20
522.227746
 30
0.0
  0
VERTEX
  5
152
100
AcDbEntity
  8
1
  6
DCAD_SOLID
 62
     7
 48
2.0
100
AcDbVertex
100
AcDb2dVertex
 10
2220.722137
 20
536.227746
 30
0.0
  0
VERTEX
  5
153
100
AcDbEntity
  8
1
  6
DCAD_SOLID
 62
     7
 48
2.0
100
AcDbVertex
100
AcDb2dVertex
 10
2119.722137
 20
536.227746
 30
0.0
  0
VERTEX
  5
154
100
AcDbEntity
  8
1
  6
DCAD_SOLID
 62
     7
 48
2.0
100
AcDbVertex
100
AcDb2dVertex
 10
2119.722137
 20
522.227746
 30
0.0
  0
SEQEND
  5
155
100
AcDbEntity
  8
0
  0
POLYLINE
  5
156
100
AcDbEntity
  8
1
  6
DCAD_SOLID
 62
     7
 48
2.0
100
AcDb2dPolyline
 66
     1
 10
0.0
 20
0.0
 30
0.0
 70
   129
  0
VERTEX
  5
157
100
AcDbEntity
  8
1
  6
DCAD_SOLID
 62
     7
 48
2.0
100
AcDbVertex
100
AcDb2dVertex
 10
2119.722137
 20
575.977746
 30
0.0
  0
VERTEX
  5
158
100
AcDbEntity
  8
1
  6
DCAD_SOLID
 62
     7
 48
2.0
100
AcDbVertex
100
AcDb2dVertex
 10
2220.722137
 20
575.977746
 30
0.0
  0
VERTEX
  5
159
100
AcDbEntity
  8
1
  6
DCAD_SOLID
 62
     7
 48
2.0
100
AcDbVertex
100
AcDb2dVertex
 10
2220.722137
 20
589.977746
 30
0.0
  0
VERTEX
  5
15A
100
AcDbEntity
  8
1
  6
DCAD_SOLID
 62
     7
 48
2.0
100
AcDbVertex
100
AcDb2dVertex
 10
2119.722137
 20
589.977746
 30
0.0
  0
VERTEX
  5
15B
100
AcDbEntity
  8
1
  6
DCAD_SOLID
 62
     7
 48
2.0
100
AcDbVertex
100
AcDb2dVertex
 10
2119.722137
 20
575.977746
 30
0.0
  0
SEQEND
  5
15C
100
AcDbEntity
  8
0
  0
POLYLINE
  5
15D
100
AcDbEntity
  8
1
  6
DCAD_SOLID
 62
     7
 48
2.0
100
AcDb2dPolyline
 66
     1
 10
0.0
 20
0.0
 30
0.0
 70
   129
  0
VERTEX
  5
15E
100
AcDbEntity
  8
1
  6
DCAD_SOLID
 62
     7
 48
2.0
100
AcDbVertex
100
AcDb2dVertex
 10
2020.722138
 20
522.227746
 30
0.0
  0
VERTEX
  5
15F
100
AcDbEntity
  8
1
  6
DCAD_SOLID
 62
     7
 48
2.0
100
AcDbVertex
100
AcDb2dVertex
 10
1919.722138
 20
522.227746
 30
0.0
  0
VERTEX
  5
160
100
AcDbEntity
  8
1
  6
DCAD_SOLID
 62
     7
 48
2.0
100
AcDbVertex
100
AcDb2dVertex
 10
1919.722138
 20
536.227746
 30
0.0
  0
VERTEX
  5
161
100
AcDbEntity
  8
1
  6
DCAD_SOLID
 62
     7
 48
2.0
100
AcDbVertex
100
AcDb2dVertex
 10
2020.722138
 20
536.227746
 30
0.0
  0
VERTEX
  5
162
100
AcDbEntity
  8
1
  6
DCAD_SOLID
 62
     7
 48
2.0
100
AcDbVertex
100
AcDb2dVertex
 10
2020.722138
 20
522.227746
 30
0.0
  0
SEQEND
  5
163
100
AcDbEntity
  8
0
  0
POLYLINE
  5
164
100
AcDbEntity
  8
1
  6
DCAD_SOLID
 62
     7
 48
2.0
100
AcDb2dPolyline
 66
     1
 10
0.0
 20
0.0
 30
0.0
 70
   129
  0
VERTEX
  5
165
100
AcDbEntity
  8
1
  6
DCAD_SOLID
 62
     7
 48
2.0
100
AcDbVertex
100
AcDb2dVertex
 10
2020.722138
 20
575.977746
 30
0.0
  0
VERTEX
  5
166
100
AcDbEntity
  8
1
  6
DCAD_SOLID
 62
     7
 48
2.0
100
AcDbVertex
100
AcDb2dVertex
 10
1919.722138
 20
575.977746
 30
0.0
  0
VERTEX
  5
167
100
AcDbEntity
  8
1
  6
DCAD_SOLID
 62
     7
 48
2.0
100
AcDbVertex
100
AcDb2dVertex
 10
1919.722138
 20
589.977746
 30
0.0
  0
VERTEX
  5
168
100
AcDbEntity
  8
1
  6
DCAD_SOLID
 62
     7
 48
2.0
100
AcDbVertex
100
AcDb2dVertex
 10
2020.722138
 20
589.977746
 30
0.0
  0
VERTEX
  5
169
100
AcDbEntity
  8
1
  6
DCAD_SOLID
 62
     7
 48
2.0
100
AcDbVertex
100
AcDb2dVertex
 10
2020.722138
 20
575.977746
 30
0.0
  0
SEQEND
  5
16A
100
AcDbEntity
  8
0
  0
POLYLINE
  5
16B
100
AcDbEntity
  8
1
  6
DCAD_SOLID
 62
     7
 48
2.0
100
AcDb2dPolyline
 66
     1
 10
0.0
 20
0.0
 30
0.0
 70
   129
  0
VERTEX
  5
16C
100
AcDbEntity
  8
1
  6
DCAD_SOLID
 62
     7
 48
2.0
100
AcDbVertex
100
AcDb2dVertex
 10
20.222138
 20
1831.027889
 30
0.0
  0
VERTEX
  5
16D
100
AcDbEntity
  8
1
  6
DCAD_SOLID
 62
     7
 48
2.0
100
AcDbVertex
100
AcDb2dVertex
 10
20.222138
 20
1731.027889
 30
0.0
  0
VERTEX
  5
16E
100
AcDbEntity
  8
1
  6
DCAD_SOLID
 62
     7
 48
2.0
100
AcDbVertex
100
AcDb2dVertex
 10
120.222138
 20
1731.027889
 30
0.0
  0
VERTEX
  5
16F
100
AcDbEntity
  8
1
  6
DCAD_SOLID
 62
     7
 48
2.0
100
AcDbVertex
100
AcDb2dVertex
 10
120.222138
 20
1631.027889
 30
0.0
  0
VERTEX
  5
170
100
AcDbEntity
  8
1
  6
DCAD_SOLID
 62
     7
 48
2.0
100
AcDbVertex
100
AcDb2dVertex
 10
20.222138
 20
1631.027889
 30
0.0
  0
VERTEX
  5
171
100
AcDbEntity
  8
1
  6
DCAD_SOLID
 62
     7
 48
2.0
100
AcDbVertex
100
AcDb2dVertex
 10
20.222138
 20
1531.027889
 30
0.0
  0
VERTEX
  5
172
100
AcDbEntity
  8
1
  6
DCAD_SOLID
 62
     7
 48
2.0
100
AcDbVertex
100
AcDb2dVertex
 10
120.222138
 20
1531.027889
 30
0.0
  0
VERTEX
  5
173
100
AcDbEntity
  8
1
  6
DCAD_SOLID
 62
     7
 48
2.0
100
AcDbVertex
100
AcDb2dVertex
 10
120.222138
 20
1436.527889
 30
0.0
  0
VERTEX
  5
174
100
AcDbEntity
  8
1
  6
DCAD_SOLID
 62
     7
 48
2.0
100
AcDbVertex
100
AcDb2dVertex
 10
480.222138
 20
1436.527889
 30
0.0
  0
VERTEX
  5
175
100
AcDbEntity
  8
1
  6
DCAD_SOLID
 62
     7
 48
2.0
100
AcDbVertex
100
AcDb2dVertex
 10
480.222138
 20
1456.527889
 30
0.0
  0
VERTEX
  5
176
100
AcDbEntity
  8
1
  6
DCAD_SOLID
 62
     7
 48
2.0
100
AcDbVertex
100
AcDb2dVertex
 10
450.222138
 20
1486.527889
 30
0.0
  0
VERTEX
  5
177
100
AcDbEntity
  8
1
  6
DCAD_SOLID
 62
     7
 48
2.0
100
AcDbVertex
100
AcDb2dVertex
 10
230.222138
 20
1486.527889
 30
0.0
  0
VERTEX
  5
178
100
AcDbEntity
  8
1
  6
DCAD_SOLID
 62
     7
 48
2.0
100
AcDbVertex
100
AcDb2dVertex
 10
230.222138
 20
1875.527889
 30
0.0
  0
VERTEX
  5
179
100
AcDbEntity
  8
1
  6
DCAD_SOLID
 62
     7
 48
2.0
100
AcDbVertex
100
AcDb2dVertex
 10
450.222138
 20
1875.527889
 30
0.0
  0
VERTEX
  5
17A
100
AcDbEntity
  8
1
  6
DCAD_SOLID
 62
     7
 48
2.0
100
AcDbVertex
100
AcDb2dVertex
 10
480.222138
 20
1905.527889
 30
0.0
  0
VERTEX
  5
17B
100
AcDbEntity
  8
1
  6
DCAD_SOLID
 62
     7
 48
2.0
100
AcDbVertex
100
AcDb2dVertex
 10
480.222138
 20
1925.527889
 30
0.0
  0
VERTEX
  5
17C
100
AcDbEntity
  8
1
  6
DCAD_SOLID
 62
     7
 48
2.0
100
AcDbVertex
100
AcDb2dVertex
 10
120.222138
 20
1925.527889
 30
0.0
  0
VERTEX
  5
17D
100
AcDbEntity
  8
1
  6
DCAD_SOLID
 62
     7
 48
2.0
100
AcDbVertex
100
AcDb2dVertex
 10
120.222138
 20
1831.027889
 30
0.0
  0
VERTEX
  5
17E
100
AcDbEntity
  8
1
  6
DCAD_SOLID
 62
     7
 48
2.0
100
AcDbVertex
100
AcDb2dVertex
 10
20.222138
 20
1831.027889
 30
0.0
  0
SEQEND
  5
17F
100
AcDbEntity
  8
0
  0
POLYLINE
  5
180
100
AcDbEntity
  8
1
  6
DCAD_SOLID
 62
     7
 48
2.0
100
AcDb2dPolyline
 66
     1
 10
0.0
 20
0.0
 30
0.0
 70
   129
  0
VERTEX
  5
181
100
AcDbEntity
  8
1
  6
DCAD_SOLID
 62
     7
 48
2.0
100
AcDbVertex
100
AcDb2dVertex
 10
853.087676
 20
1710.267913
 30
0.0
  0
VERTEX
  5
182
100
AcDbEntity
  8
1
  6
DCAD_SOLID
 62
     7
 48
2.0
100
AcDbVertex
100
AcDb2dVertex
 10
853.087676
 20
1615.767913
 30
0.0
  0
VERTEX
  5
183
100
AcDbEntity
  8
1
  6
DCAD_SOLID
 62
     7
 48
2.0
100
AcDbVertex
100
AcDb2dVertex
 10
753.087676
 20
1615.767913
 30
0.0
  0
VERTEX
  5
184
100
AcDbEntity
  8
1
  6
DCAD_SOLID
 62
     7
 48
2.0
100
AcDbVertex
100
AcDb2dVertex
 10
753.087676
 20
1515.767913
 30
0.0
  0
VERTEX
  5
185
100
AcDbEntity
  8
1
  6
DCAD_SOLID
 62
     7
 48
2.0
100
AcDbVertex
100
AcDb2dVertex
 10
853.087676
 20
1515.767913
 30
0.0
  0
VERTEX
  5
186
100
AcDbEntity
  8
1
  6
DCAD_SOLID
 62
     7
 48
2.0
100
AcDbVertex
100
AcDb2dVertex
 10
853.087676
 20
1415.767913
 30
0.0
  0
VERTEX
  5
187
100
AcDbEntity
  8
1
  6
DCAD_SOLID
 62
     7
 48
2.0
100
AcDbVertex
100
AcDb2dVertex
 10
753.087676
 20
1415.767913
 30
0.0
  0
VERTEX
  5
188
100
AcDbEntity
  8
1
  6
DCAD_SOLID
 62
     7
 48
2.0
100
AcDbVertex
100
AcDb2dVertex
 10
753.087676
 20
1315.767913
 30
0.0
  0
VERTEX
  5
189
100
AcDbEntity
  8
1
  6
DCAD_SOLID
 62
     7
 48
2.0
100
AcDbVertex
100
AcDb2dVertex
 10
853.087676
 20
1315.767913
 30
0.0
  0
VERTEX
  5
18A
100
AcDbEntity
  8
1
  6
DCAD_SOLID
 62
     7
 48
2.0
100
AcDbVertex
100
AcDb2dVertex
 10
853.087676
 20
1221.267913
 30
0.0
  0
VERTEX
  5
18B
100
AcDbEntity
  8
1
  6
DCAD_SOLID
 62
     7
 48
2.0
100
AcDbVertex
100
AcDb2dVertex
 10
1183.087676
 20
1221.267913
 30
0.0
  0
VERTEX
  5
18C
100
AcDbEntity
  8
1
  6
DCAD_SOLID
 62
     7
 48
2.0
100
AcDbVertex
100
AcDb2dVertex
 10
1213.087676
 20
1251.267913
 30
0.0
  0
VERTEX
  5
18D
100
AcDbEntity
  8
1
  6
DCAD_SOLID
 62
     7
 48
2.0
100
AcDbVertex
100
AcDb2dVertex
 10
1213.087676
 20
1680.267913
 30
0.0
  0
VERTEX
  5
18E
100
AcDbEntity
  8
1
  6
DCAD_SOLID
 62
     7
 48
2.0
100
AcDbVertex
100
AcDb2dVertex
 10
1183.087676
 20
1710.267913
 30
0.0
  0
VERTEX
  5
18F
100
AcDbEntity
  8
1
  6
DCAD_SOLID
 62
     7
 48
2.0
100
AcDbVertex
100
AcDb2dVertex
 10
853.087676
 20
1710.267913
 30
0.0
  0
SEQEND
  5
190
100
AcDbEntity
  8
0
  0
POLYLINE
  5
191
100
AcDbEntity
  8
1
  6
DCAD_SOLID
 62
     7
 48
2.0
100
AcDb2dPolyline
 66
     1
 10
0.0
 20
0.0
 30
0.0
 70
   129
  0
VERTEX
  5
192
100
AcDbEntity
  8
1
  6
DCAD_SOLID
 62
     7
 48
2.0
100
AcDbVertex
100
AcDb2dVertex
 10
600.231501
 20
1201.267913
 30
0.0
  0
VERTEX
  5
193
100
AcDbEntity
  8
1
  6
DCAD_SOLID
 62
     7
 48
2.0
100
AcDbVertex
100
AcDb2dVertex
 10
600.231501
 20
1154.267913
 30
0.0
  0
VERTEX
  5
194
100
AcDbEntity
  8
1
  6
DCAD_SOLID
 62
     7
 48
2.0
100
AcDbVertex
100
AcDb2dVertex
 10
700.231501
 20
1154.267913
 30
0.0
  0
VERTEX
  5
195
100
AcDbEntity
  8
1
  6
DCAD_SOLID
 62
     7
 48
2.0
100
AcDbVertex
100
AcDb2dVertex
 10
700.231501
 20
1141.267913
 30
0.0
  0
VERTEX
  5
196
100
AcDbEntity
  8
1
  6
DCAD_SOLID
 62
     7
 48
2.0
100
AcDbVertex
100
AcDb2dVertex
 10
600.231501
 20
1141.267913
 30
0.0
  0
VERTEX
  5
197
100
AcDbEntity
  8
1
  6
DCAD_SOLID
 62
     7
 48
2.0
100
AcDbVertex
100
AcDb2dVertex
 10
600.231501
 20
691.267913
 30
0.0
  0
VERTEX
  5
198
100
AcDbEntity
  8
1
  6
DCAD_SOLID
 62
     7
 48
2.0
100
AcDbVertex
100
AcDb2dVertex
 10
700.231501
 20
691.267913
 30
0.0
  0
VERTEX
  5
199
100
AcDbEntity
  8
1
  6
DCAD_SOLID
 62
     7
 48
2.0
100
AcDbVertex
100
AcDb2dVertex
 10
700.231501
 20
678.267913
 30
0.0
  0
VERTEX
  5
19A
100
AcDbEntity
  8
1
  6
DCAD_SOLID
 62
     7
 48
2.0
100
AcDbVertex
100
AcDb2dVertex
 10
600.231501
 20
678.267913
 30
0.0
  0
VERTEX
  5
19B
100
AcDbEntity
  8
1
  6
DCAD_SOLID
 62
     7
 48
2.0
100
AcDbVertex
100
AcDb2dVertex
 10
600.231501
 20
631.267913
 30
0.0
  0
VERTEX
  5
19C
100
AcDbEntity
  8
1
  6
DCAD_SOLID
 62
     7
 48
2.0
100
AcDbVertex
100
AcDb2dVertex
 10
720.231501
 20
631.267913
 30
0.0
  0
VERTEX
  5
19D
100
AcDbEntity
  8
1
  6
DCAD_SOLID
 62
     7
 48
2.0
100
AcDbVertex
100
AcDb2dVertex
 10
810.26249
 20
691.267913
 30
0.0
  0
VERTEX
  5
19E
100
AcDbEntity
  8
1
  6
DCAD_SOLID
 62
     7
 48
2.0
100
AcDbVertex
100
AcDb2dVertex
 10
810.26249
 20
1141.267913
 30
0.0
  0
VERTEX
  5
19F
100
AcDbEntity
  8
1
  6
DCAD_SOLID
 62
     7
 48
2.0
100
AcDbVertex
100
AcDb2dVertex
 10
720.231501
 20
1201.267913
 30
0.0
  0
VERTEX
  5
1A0
100
AcDbEntity
  8
1
  6
DCAD_SOLID
 62
     7
 48
2.0
100
AcDbVertex
100
AcDb2dVertex
 10
600.231501
 20
1201.267913
 30
0.0
  0
SEQEND
  5
1A1
100
AcDbEntity
  8
0
  0
POLYLINE
  5
1A2
100
AcDbEntity
  8
1
  6
DCAD_SOLID
 62
     7
 48
2.0
100
AcDb2dPolyline
 66
     1
 10
0.0
 20
0.0
 30
0.0
 70
   129
  0
VERTEX
  5
1A3
100
AcDbEntity
  8
1
  6
DCAD_SOLID
 62
     7
 48
2.0
100
AcDbVertex
100
AcDb2dVertex
 10
572.398525
 20
1053.306598
 30
0.0
  0
VERTEX
  5
1A4
100
AcDbEntity
  8
1
  6
DCAD_SOLID
 62
     7
 48
2.0
100
AcDbVertex
100
AcDb2dVertex
 10
584.398525
 20
1053.306598
 30
0.0
  0
VERTEX
  5
1A5
100
AcDbEntity
  8
1
  6
DCAD_SOLID
 62
     7
 48
2.0
100
AcDbVertex
100
AcDb2dVertex
 10
584.398525
 20
1003.306598
 30
0.0
  0
VERTEX
  5
1A6
100
AcDbEntity
  8
1
  6
DCAD_SOLID
 62
     7
 48
2.0
100
AcDbVertex
100
AcDb2dVertex
 10
572.398525
 20
1003.306598
 30
0.0
  0
VERTEX
  5
1A7
100
AcDbEntity
  8
1
  6
DCAD_SOLID
 62
     7
 48
2.0
100
AcDbVertex
100
AcDb2dVertex
 10
572.398525
 20
873.306598
 30
0.0
  0
VERTEX
  5
1A8
100
AcDbEntity
  8
1
  6
DCAD_SOLID
 62
     7
 48
2.0
100
AcDbVertex
100
AcDb2dVertex
 10
459.398525
 20
873.306598
 30
0.0
  0
VERTEX
  5
1A9
100
AcDbEntity
  8
1
  6
DCAD_SOLID
 62
     7
 48
2.0
100
AcDbVertex
100
AcDb2dVertex
 10
459.398525
 20
860.306598
 30
0.0
  0
VERTEX
  5
1AA
100
AcDbEntity
  8
1
  6
DCAD_SOLID
 62
     7
 48
2.0
100
AcDbVertex
100
AcDb2dVertex
 10
497.183687
 20
860.306598
 30
0.0
  0
VERTEX
  5
1AB
100
AcDbEntity
  8
1
  6
DCAD_SOLID
 62
     7
 48
2.0
100
AcDbVertex
100
AcDb2dVertex
 10
497.183687
 20
410.306598
 30
0.0
  0
VERTEX
  5
1AC
100
AcDbEntity
  8
1
  6
DCAD_SOLID
 62
     7
 48
2.0
100
AcDbVertex
100
AcDb2dVertex
 10
459.398525
 20
410.306598
 30
0.0
  0
VERTEX
  5
1AD
100
AcDbEntity
  8
1
  6
DCAD_SOLID
 62
     7
 48
2.0
100
AcDbVertex
100
AcDb2dVertex
 10
459.398525
 20
397.306598
 30
0.0
  0
VERTEX
  5
1AE
100
AcDbEntity
  8
1
  6
DCAD_SOLID
 62
     7
 48
2.0
100
AcDbVertex
100
AcDb2dVertex
 10
572.398525
 20
397.306598
 30
0.0
  0
VERTEX
  5
1AF
100
AcDbEntity
  8
1
  6
DCAD_SOLID
 62
     7
 48
2.0
100
AcDbVertex
100
AcDb2dVertex
 10
572.398525
 20
267.306598
 30
0.0
  0
VERTEX
  5
1B0
100
AcDbEntity
  8
1
  6
DCAD_SOLID
 62
     7
 48
2.0
100
AcDbVertex
100
AcDb2dVertex
 10
584.398525
 20
267.306598
 30
0.0
  0
VERTEX
  5
1B1
100
AcDbEntity
  8
1
  6
DCAD_SOLID
 62
     7
 48
2.0
100
AcDbVertex
100
AcDb2dVertex
 10
584.398525
 20
217.306598
 30
0.0
  0
VERTEX
  5
1B2
100
AcDbEntity
  8
1
  6
DCAD_SOLID
 62
     7
 48
2.0
100
AcDbVertex
100
AcDb2dVertex
 10
572.398525
 20
217.306598
 30
0.0
  0
VERTEX
  5
1B3
100
AcDbEntity
  8
1
  6
DCAD_SOLID
 62
     7
 48
2.0
100
AcDbVertex
100
AcDb2dVertex
 10
335.398525
 20
310.413736
 30
0.0
  0
VERTEX
  5
1B4
100
AcDbEntity
  8
1
  6
DCAD_SOLID
 62
     7
 48
2.0
100
AcDbVertex
100
AcDb2dVertex
 10
335.398525
 20
960.199461
 30
0.0
  0
VERTEX
  5
1B5
100
AcDbEntity
  8
1
  6
DCAD_SOLID
 62
     7
 48
2.0
100
AcDbVertex
100
AcDb2dVertex
 10
572.398525
 20
1053.306598
 30
0.0
  0
SEQEND
  5
1B6
100
AcDbEntity
  8
0
  0
POLYLINE
  5
1B7
100
AcDbEntity
  8
1
  6
DCAD_SOLID
 62
     7
 48
2.0
100
AcDb2dPolyline
 66
     1
 10
0.0
 20
0.0
 30
0.0
 70
   129
  0
VERTEX
  5
1B8
100
AcDbEntity
  8
1
  6
DCAD_SOLID
 62
     7
 48
2.0
100
AcDbVertex
100
AcDb2dVertex
 10
1369.034421
 20
1773.903417
 30
0.0
  0
VERTEX
  5
1B9
100
AcDbEntity
  8
1
  6
DCAD_SOLID
 62
     7
 48
2.0
100
AcDbVertex
100
AcDb2dVertex
 10
1369.034421
 20
1785.903417
 30
0.0
  0
VERTEX
  5
1BA
100
AcDbEntity
  8
1
  6
DCAD_SOLID
 62
     7
 48
2.0
100
AcDbVertex
100
AcDb2dVertex
 10
1419.034421
 20
1785.903417
 30
0.0
  0
VERTEX
  5
1BB
100
AcDbEntity
  8
1
  6
DCAD_SOLID
 62
     7
 48
2.0
100
AcDbVertex
100
AcDb2dVertex
 10
1419.034421
 20
1773.903417
 30
0.0
  0
VERTEX
  5
1BC
100
AcDbEntity
  8
1
  6
DCAD_SOLID
 62
     7
 48
2.0
100
AcDbVertex
100
AcDb2dVertex
 10
1549.034421
 20
1773.903417
 30
0.0
  0
VERTEX
  5
1BD
100
AcDbEntity
  8
1
  6
DCAD_SOLID
 62
     7
 48
2.0
100
AcDbVertex
100
AcDb2dVertex
 10
1549.034421
 20
1660.903417
 30
0.0
  0
VERTEX
  5
1BE
100
AcDbEntity
  8
1
  6
DCAD_SOLID
 62
     7
 48
2.0
100
AcDbVertex
100
AcDb2dVertex
 10
1562.034421
 20
1660.903417
 30
0.0
  0
VERTEX
  5
1BF
100
AcDbEntity
  8
1
  6
DCAD_SOLID
 62
     7
 48
2.0
100
AcDbVertex
100
AcDb2dVertex
 10
1562.034421
 20
1730.903417
 30
0.0
  0
VERTEX
  5
1C0
100
AcDbEntity
  8
1
  6
DCAD_SOLID
 62
     7
 48
2.0
100
AcDbVertex
100
AcDb2dVertex
 10
2012.034421
 20
1730.903417
 30
0.0
  0
VERTEX
  5
1C1
100
AcDbEntity
  8
1
  6
DCAD_SOLID
 62
     7
 48
2.0
100
AcDbVertex
100
AcDb2dVertex
 10
2012.034421
 20
1660.903417
 30
0.0
  0
VERTEX
  5
1C2
100
AcDbEntity
  8
1
  6
DCAD_SOLID
 62
     7
 48
2.0
100
AcDbVertex
100
AcDb2dVertex
 10
2025.034421
 20
1660.903417
 30
0.0
  0
VERTEX
  5
1C3
100
AcDbEntity
  8
1
  6
DCAD_SOLID
 62
     7
 48
2.0
100
AcDbVertex
100
AcDb2dVertex
 10
2025.034421
 20
1773.903417
 30
0.0
  0
VERTEX
  5
1C4
100
AcDbEntity
  8
1
  6
DCAD_SOLID
 62
     7
 48
2.0
100
AcDbVertex
100
AcDb2dVertex
 10
2155.034421
 20
1773.903417
 30
0.0
  0
VERTEX
  5
1C5
100
AcDbEntity
  8
1
  6
DCAD_SOLID
 62
     7
 48
2.0
100
AcDbVertex
100
AcDb2dVertex
 10
2155.034421
 20
1785.903417
 30
0.0
  0
VERTEX
  5
1C6
100
AcDbEntity
  8
1
  6
DCAD_SOLID
 62
     7
 48
2.0
100
AcDbVertex
100
AcDb2dVertex
 10
2205.034421
 20
1785.903417
 30
0.0
  0
VERTEX
  5
1C7
100
AcDbEntity
  8
1
  6
DCAD_SOLID
 62
     7
 48
2.0
100
AcDbVertex
100
AcDb2dVertex
 10
2205.034421
 20
1773.903417
 30
0.0
  0
VERTEX
  5
1C8
100
AcDbEntity
  8
1
  6
DCAD_SOLID
 62
     7
 48
2.0
100
AcDbVertex
100
AcDb2dVertex
 10
2111.927271
 20
1536.903417
 30
0.0
  0
VERTEX
  5
1C9
100
AcDbEntity
  8
1
  6
DCAD_SOLID
 62
     7
 48
2.0
100
AcDbVertex
100
AcDb2dVertex
 10
1462.141558
 20
1536.903417
 30
0.0
  0
VERTEX
  5
1CA
100
AcDbEntity
  8
1
  6
DCAD_SOLID
 62
     7
 48
2.0
100
AcDbVertex
100
AcDb2dVertex
 10
1369.034421
 20
1773.903417
 30
0.0
  0
SEQEND
  5
1CB
100
AcDbEntity
  8
0
  0
POLYLINE
  5
1CC
100
AcDbEntity
  8
1
  6
DCAD_SOLID
 62
     7
 48
2.0
100
AcDb2dPolyline
 66
     1
 10
0.0
 20
0.0
 30
0.0
 70
   129
  0
VERTEX
  5
1CD
100
AcDbEntity
  8
1
  6
DCAD_SOLID
 62
     7
 48
2.0
100
AcDbVertex
100
AcDb2dVertex
 10
20.222138
 20
1121.267913
 30
0.0
  0
VERTEX
  5
1CE
100
AcDbEntity
  8
1
  6
DCAD_SOLID
 62
     7
 48
2.0
100
AcDbVertex
100
AcDb2dVertex
 10
257.222138
 20
1121.267913
 30
0.0
  0
VERTEX
  5
1CF
100
AcDbEntity
  8
1
  6
DCAD_SOLID
 62
     7
 48
2.0
100
AcDbVertex
100
AcDb2dVertex
 10
257.222138
 20
1070.267913
 30
0.0
  0
VERTEX
  5
1D0
100
AcDbEntity
  8
1
  6
DCAD_SOLID
 62
     7
 48
2.0
100
AcDbVertex
100
AcDb2dVertex
 10
270.222137
 20
1070.267913
 30
0.0
  0
VERTEX
  5
1D1
100
AcDbEntity
  8
1
  6
DCAD_SOLID
 62
     7
 48
2.0
100
AcDbVertex
100
AcDb2dVertex
 10
270.222137
 20
1121.267913
 30
0.0
  0
VERTEX
  5
1D2
100
AcDbEntity
  8
1
  6
DCAD_SOLID
 62
     7
 48
2.0
100
AcDbVertex
100
AcDb2dVertex
 10
295.222137
 20
1121.267913
 30
0.0
  0
VERTEX
  5
1D3
100
AcDbEntity
  8
1
  6
DCAD_SOLID
 62
     7
 48
2.0
100
AcDbVertex
100
AcDb2dVertex
 10
320.222137
 20
1096.267913
 30
0.0
  0
VERTEX
  5
1D4
100
AcDbEntity
  8
1
  6
DCAD_SOLID
 62
     7
 48
2.0
100
AcDbVertex
100
AcDb2dVertex
 10
320.222137
 20
301.267913
 30
0.0
  0
VERTEX
  5
1D5
100
AcDbEntity
  8
1
  6
DCAD_SOLID
 62
     7
 48
2.0
100
AcDbVertex
100
AcDb2dVertex
 10
495.047213
 20
232.586625
 30
0.0
  0
VERTEX
  5
1D6
100
AcDbEntity
  8
1
  6
DCAD_SOLID
 62
     7
 48
2.0
100
AcDbVertex
100
AcDb2dVertex
 10
458.116325
 20
138.580725
 30
0.0
  0
VERTEX
  5
1D7
100
AcDbEntity
  8
1
  6
DCAD_SOLID
 62
     7
 48
2.0
100
AcDbVertex
100
AcDb2dVertex
 10
470.2161
 20
133.82725
 30
0.0
  0
VERTEX
  5
1D8
100
AcDbEntity
  8
1
  6
DCAD_SOLID
 62
     7
 48
2.0
100
AcDbVertex
100
AcDb2dVertex
 10
507.146988
 20
227.83315
 30
0.0
  0
VERTEX
  5
1D9
100
AcDbEntity
  8
1
  6
DCAD_SOLID
 62
     7
 48
2.0
100
AcDbVertex
100
AcDb2dVertex
 10
600.222138
 20
191.267912
 30
0.0
  0
VERTEX
  5
1DA
100
AcDbEntity
  8
1
  6
DCAD_SOLID
 62
     7
 48
2.0
100
AcDbVertex
100
AcDb2dVertex
 10
533.436425
 20
21.267913
 30
0.0
  0
VERTEX
  5
1DB
100
AcDbEntity
  8
1
  6
DCAD_SOLID
 62
     7
 48
2.0
100
AcDbVertex
100
AcDb2dVertex
 10
270.222137
 20
21.267913
 30
0.0
  0
VERTEX
  5
1DC
100
AcDbEntity
  8
1
  6
DCAD_SOLID
 62
     7
 48
2.0
100
AcDbVertex
100
AcDb2dVertex
 10
270.222137
 20
72.267913
 30
0.0
  0
VERTEX
  5
1DD
100
AcDbEntity
  8
1
  6
DCAD_SOLID
 62
     7
 48
2.0
100
AcDbVertex
100
AcDb2dVertex
 10
257.222138
 20
72.267913
 30
0.0
  0
VERTEX
  5
1DE
100
AcDbEntity
  8
1
  6
DCAD_SOLID
 62
     7
 48
2.0
100
AcDbVertex
100
AcDb2dVertex
 10
257.222138
 20
21.267913
 30
0.0
  0
VERTEX
  5
1DF
100
AcDbEntity
  8
1
  6
DCAD_SOLID
 62
     7
 48
2.0
100
AcDbVertex
100
AcDb2dVertex
 10
20.222138
 20
21.267913
 30
0.0
  0
VERTEX
  5
1E0
100
AcDbEntity
  8
1
  6
DCAD_SOLID
 62
     7
 48
2.0
100
AcDbVertex
100
AcDb2dVertex
 10
20.222138
 20
160.267912
 30
0.0
  0
VERTEX
  5
1E1
100
AcDbEntity
  8
1
  6
DCAD_SOLID
 62
     7
 48
2.0
100
AcDbVertex
100
AcDb2dVertex
 10
145.222138
 20
160.267912
 30
0.0
  0
VERTEX
  5
1E2
100
AcDbEntity
  8
1
  6
DCAD_SOLID
 62
     7
 48
2.0
100
AcDbVertex
100
AcDb2dVertex
 10
145.222138
 20
173.267912
 30
0.0
  0
VERTEX
  5
1E3
100
AcDbEntity
  8
1
  6
DCAD_SOLID
 62
     7
 48
2.0
100
AcDbVertex
100
AcDb2dVertex
 10
20.222138
 20
173.267912
 30
0.0
  0
VERTEX
  5
1E4
100
AcDbEntity
  8
1
  6
DCAD_SOLID
 62
     7
 48
2.0
100
AcDbVertex
100
AcDb2dVertex
 10
20.222138
 20
778.267912
 30
0.0
  0
VERTEX
  5
1E5
100
AcDbEntity
  8
1
  6
DCAD_SOLID
 62
     7
 48
2.0
100
AcDbVertex
100
AcDb2dVertex
 10
50.222138
 20
808.267912
 30
0.0
  0
VERTEX
  5
1E6
100
AcDbEntity
  8
1
  6
DCAD_SOLID
 62
     7
 48
2.0
100
AcDbVertex
100
AcDb2dVertex
 10
145.222138
 20
808.267912
 30
0.0
  0
VERTEX
  5
1E7
100
AcDbEntity
  8
1
  6
DCAD_SOLID
 62
     7
 48
2.0
100
AcDbVertex
100
AcDb2dVertex
 10
145.222138
 20
821.267912
 30
0.0
  0
VERTEX
  5
1E8
100
AcDbEntity
  8
1
  6
DCAD_SOLID
 62
     7
 48
2.0
100
AcDbVertex
100
AcDb2dVertex
 10
20.222138
 20
821.267912
 30
0.0
  0
VERTEX
  5
1E9
100
AcDbEntity
  8
1
  6
DCAD_SOLID
 62
     7
 48
2.0
100
AcDbVertex
100
AcDb2dVertex
 10
20.222138
 20
1121.267913
 30
0.0
  0
SEQEND
  5
1EA
100
AcDbEntity
  8
0
  0
CIRCLE
  5
1EB
100
AcDbEntity
  8
1
  6
DCAD_SOLID
 62
     7
 48
2.0
100
AcDbCircle
 10
70.222138
 20
461.267913
 30
0.0
 40
13.0
  0
CIRCLE
  5
1EC
100
AcDbEntity
  8
1
  6
DCAD_SOLID
 62
     7
 48
2.0
100
AcDbCircle
 10
180.222138
 20
461.267913
 30
0.0
 40
13.0
  0
CIRCLE
  5
1ED
100
AcDbEntity
  8
1
  6
DCAD_SOLID
 62
     7
 48
2.0
100
AcDbCircle
 10
125.222138
 20
461.267913
 30
0.0
 40
13.0
  0
POLYLINE
  5
1EE
100
AcDbEntity
  8
2
  6
DCAD_BORDER
 62
    30
 48
0.054054
100
AcDb2dPolyline
 66
     1
 10
0.0
 20
0.0
 30
0.0
 70
   129
  0
VERTEX
  5
1EF
100
AcDbEntity
  8
2
  6
DCAD_BORDER
 62
    30
 48
0.054054
100
AcDbVertex
100
AcDb2dVertex
 10
20.222138
 20
21.267913
 30
0.0
  0
VERTEX
  5
1F0
100
AcDbEntity
  8
2
  6
DCAD_BORDER
 62
    30
 48
0.054054
100
AcDbVertex
100
AcDb2dVertex
 10
2400.222137
 20
21.267913
 30
0.0
  0
VERTEX
  5
1F1
100
AcDbEntity
  8
2
  6
DCAD_BORDER
 62
    30
 48
0.054054
100
AcDbVertex
100
AcDb2dVertex
 10
2400.222137
 20
1201.267913
 30
0.0
  0
VERTEX
  5
1F2
100
AcDbEntity
  8
2
  6
DCAD_BORDER
 62
    30
 48
0.054054
100
AcDbVertex
100
AcDb2dVertex
 10
20.222138
 20
1201.267913
 30
0.0
  0
VERTEX
  5
1F3
100
AcDbEntity
  8
2
  6
DCAD_BORDER
 62
    30
 48
0.054054
100
AcDbVertex
100
AcDb2dVertex
 10
20.222138
 20
21.267913
 30
0.0
  0
SEQEND
  5
1F4
100
AcDbEntity
  8
0
  0
POLYLINE
  5
1F5
100
AcDbEntity
  8
2
  6
DCAD_BORDER
 62
    30
 48
0.054054
100
AcDb2dPolyline
 66
     1
 10
0.0
 20
0.0
 30
0.0
 70
   129
  0
VERTEX
  5
1F6
100
AcDbEntity
  8
2
  6
DCAD_BORDER
 62
    30
 48
0.054054
100
AcDbVertex
100
AcDb2dVertex
 10
20.222138
 20
1221.267913
 30
0.0
  0
VERTEX
  5
1F7
100
AcDbEntity
  8
2
  6
DCAD_BORDER
 62
    30
 48
0.054054
100
AcDbVertex
100
AcDb2dVertex
 10
2400.222137
 20
1221.267913
 30
0.0
  0
VERTEX
  5
1F8
100
AcDbEntity
  8
2
  6
DCAD_BORDER
 62
    30
 48
0.054054
100
AcDbVertex
100
AcDb2dVertex
 10
2400.222137
 20
2401.267913
 30
0.0
  0
VERTEX
  5
1F9
100
AcDbEntity
  8
2
  6
DCAD_BORDER
 62
    30
 48
0.054054
100
AcDbVertex
100
AcDb2dVertex
 10
20.222138
 20
2401.267913
 30
0.0
  0
VERTEX
  5
1FA
100
AcDbEntity
  8
2
  6
DCAD_BORDER
 62
    30
 48
0.054054
100
AcDbVertex
100
AcDb2dVertex
 10
20.222138
 20
1221.267913
 30
0.0
  0
SEQEND
  5
1FB
100
AcDbEntity
  8
0
  0
POLYLINE
  5
1FC
100
AcDbEntity
  8
2
  6
DCAD_BORDER
 62
    30
 48
0.054054
100
AcDb2dPolyline
 66
     1
 10
0.0
 20
0.0
 30
0.0
 70
   129
  0
VERTEX
  5
1FD
100
AcDbEntity
  8
2
  6
DCAD_BORDER
 62
    30
 48
0.054054
100
AcDbVertex
100
AcDb2dVertex
 10
10.222138
 20
11.267913
 30
0.0
  0
VERTEX
  5
1FE
100
AcDbEntity
  8
2
  6
DCAD_BORDER
 62
    30
 48
0.054054
100
AcDbVertex
100
AcDb2dVertex
 10
2410.222137
 20
11.267913
 30
0.0
  0
VERTEX
  5
1FF
100
AcDbEntity
  8
2
  6
DCAD_BORDER
 62
    30
 48
0.054054
100
AcDbVertex
100
AcDb2dVertex
 10
2410.222137
 20
1211.267913
 30
0.0
  0
VERTEX
  5
200
100
AcDbEntity
  8
2
  6
DCAD_BORDER
 62
    30
 48
0.054054
100
AcDbVertex
100
AcDb2dVertex
 10
10.222137
 20
1211.267913
 30
0.0
  0
VERTEX
  5
201
100
AcDbEntity
  8
2
  6
DCAD_BORDER
 62
    30
 48
0.054054
100
AcDbVertex
100
AcDb2dVertex
 10
10.222137
 20
11.267912
 30
0.0
  0
SEQEND
  5
202
100
AcDbEntity
  8
0
  0
POLYLINE
  5
203
100
AcDbEntity
  8
2
  6
DCAD_BORDER
 62
    30
 48
0.054054
100
AcDb2dPolyline
 66
     1
 10
0.0
 20
0.0
 30
0.0
 70
   128
  0
VERTEX
  5
204
100
AcDbEntity
  8
2
  6
DCAD_BORDER
 62
    30
 48
0.054054
100
AcDbVertex
100
AcDb2dVertex
 10
10.222137
 20
1211.267913
 30
0.0
  0
VERTEX
  5
205
100
AcDbEntity
  8
2
  6
DCAD_BORDER
 62
    30
 48
0.054054
100
AcDbVertex
100
AcDb2dVertex
 10
10.222137
 20
2411.267913
 30
0.0
  0
VERTEX
  5
206
100
AcDbEntity
  8
2
  6
DCAD_BORDER
 62
    30
 48
0.054054
100
AcDbVertex
100
AcDb2dVertex
 10
2410.222137
 20
2411.267913
 30
0.0
  0
VERTEX
  5
207
100
AcDbEntity
  8
2
  6
DCAD_BORDER
 62
    30
 48
0.054054
100
AcDbVertex
100
AcDb2dVertex
 10
2410.222137
 20
1211.267913
 30
0.0
  0
SEQEND
  5
208
100
AcDbEntity
  8
0
  0
ENDSEC
  0
SECTION
  2
OBJECTS
  0
DICTIONARY
  5
19
100
AcDbDictionary
  3
ACAD_GROUP
350
1A
  3
ACAD_MLINESTYLE
350
1B
  0
DICTIONARY
  5
1A
102
{ACAD_REACTORS
330
19
102
}
100
AcDbDictionary
  0
DICTIONARY
  5
1B
102
{ACAD_REACTORS
330
19
102
}
100
AcDbDictionary
  3
STANDARD
350
1C
  0
MLINESTYLE
  5
1C
100
AcDbMlineStyle
  2
STANDARD
 70
     0
  3

 62
   256
 51
90.0
 52
90.0
 71
     2
 49
0.5
 62
   256
  6
BYLAYER
 49
-0.5
 62
   256
  6
BYLAYER
  0
ENDSEC
  0
EOF
